ISO-10303-21;
HEADER;
/* Generated by software containing ST-Developer
 * from STEP Tools, Inc. (www.steptools.com) 
 */
/* OPTION: using custom schema-name function */

FILE_DESCRIPTION(
/* description */ (''),
/* implementation_level */ '2;1');

FILE_NAME(
/* name */ '810 Fly terminale',
/* time_stamp */ '2013-10-18T09:16:05+02:00',
/* author */ (''),
/* organization */ (''),
/* preprocessor_version */ 'ST-DEVELOPER v10',
/* originating_system */ '',
/* authorisation */ '');

FILE_SCHEMA (('CONFIG_CONTROL_DESIGN'));
ENDSEC;

DATA;
#10=SHAPE_REPRESENTATION_RELATIONSHIP('','',#180,#12);
#11=MANIFOLD_SOLID_BREP('brep_1',#13);
#12=ADVANCED_BREP_SHAPE_REPRESENTATION($,(#11,#182),#179);
#13=CLOSED_SHELL($,(#14,#15,#16,#17,#18,#19));
#14=ADVANCED_FACE($,(#20),#76,.T.);
#15=ADVANCED_FACE($,(#21),#77,.T.);
#16=ADVANCED_FACE($,(#22),#78,.T.);
#17=ADVANCED_FACE($,(#23),#79,.T.);
#18=ADVANCED_FACE($,(#24),#80,.T.);
#19=ADVANCED_FACE($,(#25),#81,.T.);
#20=FACE_OUTER_BOUND($,#26,.T.);
#21=FACE_OUTER_BOUND($,#27,.T.);
#22=FACE_OUTER_BOUND($,#28,.T.);
#23=FACE_OUTER_BOUND($,#29,.T.);
#24=FACE_OUTER_BOUND($,#30,.T.);
#25=FACE_OUTER_BOUND($,#31,.T.);
#26=EDGE_LOOP($,(#32,#33,#34,#35));
#27=EDGE_LOOP($,(#36,#37,#38,#39));
#28=EDGE_LOOP($,(#40,#41,#42,#43));
#29=EDGE_LOOP($,(#44,#45,#46,#47));
#30=EDGE_LOOP($,(#48,#49,#50,#51));
#31=EDGE_LOOP($,(#52,#53,#54,#55));
#32=ORIENTED_EDGE($,*,*,#56,.T.);
#33=ORIENTED_EDGE($,*,*,#61,.T.);
#34=ORIENTED_EDGE($,*,*,#60,.T.);
#35=ORIENTED_EDGE($,*,*,#59,.T.);
#36=ORIENTED_EDGE($,*,*,#65,.T.);
#37=ORIENTED_EDGE($,*,*,#62,.T.);
#38=ORIENTED_EDGE($,*,*,#57,.F.);
#39=ORIENTED_EDGE($,*,*,#59,.F.);
#40=ORIENTED_EDGE($,*,*,#62,.F.);
#41=ORIENTED_EDGE($,*,*,#63,.F.);
#42=ORIENTED_EDGE($,*,*,#64,.F.);
#43=ORIENTED_EDGE($,*,*,#58,.F.);
#44=ORIENTED_EDGE($,*,*,#66,.T.);
#45=ORIENTED_EDGE($,*,*,#63,.T.);
#46=ORIENTED_EDGE($,*,*,#65,.F.);
#47=ORIENTED_EDGE($,*,*,#60,.F.);
#48=ORIENTED_EDGE($,*,*,#67,.T.);
#49=ORIENTED_EDGE($,*,*,#64,.T.);
#50=ORIENTED_EDGE($,*,*,#66,.F.);
#51=ORIENTED_EDGE($,*,*,#61,.F.);
#52=ORIENTED_EDGE($,*,*,#56,.F.);
#53=ORIENTED_EDGE($,*,*,#57,.T.);
#54=ORIENTED_EDGE($,*,*,#58,.T.);
#55=ORIENTED_EDGE($,*,*,#67,.F.);
#56=EDGE_CURVE($,#68,#72,#82,.T.);
#57=EDGE_CURVE($,#68,#69,#83,.T.);
#58=EDGE_CURVE($,#69,#75,#84,.T.);
#59=EDGE_CURVE($,#70,#68,#85,.T.);
#60=EDGE_CURVE($,#71,#70,#86,.T.);
#61=EDGE_CURVE($,#72,#71,#87,.T.);
#62=EDGE_CURVE($,#73,#69,#88,.T.);
#63=EDGE_CURVE($,#74,#73,#89,.T.);
#64=EDGE_CURVE($,#75,#74,#90,.T.);
#65=EDGE_CURVE($,#70,#73,#91,.T.);
#66=EDGE_CURVE($,#71,#74,#92,.T.);
#67=EDGE_CURVE($,#72,#75,#93,.T.);
#68=VERTEX_POINT($,#236);
#69=VERTEX_POINT($,#237);
#70=VERTEX_POINT($,#238);
#71=VERTEX_POINT($,#239);
#72=VERTEX_POINT($,#240);
#73=VERTEX_POINT($,#241);
#74=VERTEX_POINT($,#242);
#75=VERTEX_POINT($,#243);
#76=B_SPLINE_SURFACE_WITH_KNOTS($,1,1,((#212,#213),(#214,#215)),.UNSPECIFIED.,
.F.,.F.,.F.,(2,2),(2,2),(0.,391.60110789194),(-982.098321909321,0.),.UNSPECIFIED.);
#77=B_SPLINE_SURFACE_WITH_KNOTS($,1,1,((#216,#217),(#218,#219)),.UNSPECIFIED.,
.F.,.F.,.F.,(2,2),(2,2),(-2734.33392658409,-2342.73281869582),(0.,195.84571289425),
.UNSPECIFIED.);
#78=B_SPLINE_SURFACE_WITH_KNOTS($,1,1,((#220,#221),(#222,#223)),.UNSPECIFIED.,
.F.,.F.,.F.,(2,2),(2,2),(-982.098321909321,0.),(0.,391.60110789194),.UNSPECIFIED.);
#79=B_SPLINE_SURFACE_WITH_KNOTS($,1,1,((#224,#225),(#226,#227)),.UNSPECIFIED.,
.F.,.F.,.F.,(2,2),(2,2),(-2342.73281869582,-1360.6344967865),(0.,195.84571289425),
.UNSPECIFIED.);
#80=B_SPLINE_SURFACE_WITH_KNOTS($,1,1,((#228,#229),(#230,#231)),.UNSPECIFIED.,
.F.,.F.,.F.,(2,2),(2,2),(-1360.6344967865,-982.186395486887),(0.,195.84571289425),
.UNSPECIFIED.);
#81=B_SPLINE_SURFACE_WITH_KNOTS($,1,1,((#232,#233),(#234,#235)),.UNSPECIFIED.,
.F.,.F.,.F.,(2,2),(2,2),(-982.186395486887,0.),(0.,195.84571289425),.UNSPECIFIED.);
#82=B_SPLINE_CURVE_WITH_KNOTS($,1,(#188,#189),.UNSPECIFIED.,.F.,.F.,(2,2),
(0.,982.186395486887),.UNSPECIFIED.);
#83=B_SPLINE_CURVE_WITH_KNOTS($,1,(#190,#191),.UNSPECIFIED.,.F.,.F.,(2,2),
(0.,195.84571289425),.UNSPECIFIED.);
#84=B_SPLINE_CURVE_WITH_KNOTS($,1,(#192,#193),.UNSPECIFIED.,.F.,.F.,(2,2),
(0.,982.186395486887),.UNSPECIFIED.);
#85=B_SPLINE_CURVE_WITH_KNOTS($,1,(#194,#195),.UNSPECIFIED.,.F.,.F.,(2,2),
(2342.73281869582,2734.33392658409),.UNSPECIFIED.);
#86=B_SPLINE_CURVE_WITH_KNOTS($,1,(#196,#197),.UNSPECIFIED.,.F.,.F.,(2,2),
(1360.6344967865,2342.73281869582),.UNSPECIFIED.);
#87=B_SPLINE_CURVE_WITH_KNOTS($,1,(#198,#199),.UNSPECIFIED.,.F.,.F.,(2,2),
(982.186395486887,1360.6344967865),.UNSPECIFIED.);
#88=B_SPLINE_CURVE_WITH_KNOTS($,1,(#200,#201),.UNSPECIFIED.,.F.,.F.,(2,2),
(2342.73281869582,2734.33392658409),.UNSPECIFIED.);
#89=B_SPLINE_CURVE_WITH_KNOTS($,1,(#202,#203),.UNSPECIFIED.,.F.,.F.,(2,2),
(1360.6344967865,2342.73281869582),.UNSPECIFIED.);
#90=B_SPLINE_CURVE_WITH_KNOTS($,1,(#204,#205),.UNSPECIFIED.,.F.,.F.,(2,2),
(982.186395486887,1360.6344967865),.UNSPECIFIED.);
#91=B_SPLINE_CURVE_WITH_KNOTS($,1,(#206,#207),.UNSPECIFIED.,.F.,.F.,(2,2),
(0.,195.84571289425),.UNSPECIFIED.);
#92=B_SPLINE_CURVE_WITH_KNOTS($,1,(#208,#209),.UNSPECIFIED.,.F.,.F.,(2,2),
(0.,195.84571289425),.UNSPECIFIED.);
#93=B_SPLINE_CURVE_WITH_KNOTS($,1,(#210,#211),.UNSPECIFIED.,.F.,.F.,(2,2),
(0.,195.84571289425),.UNSPECIFIED.);
#94=SHAPE_DEFINITION_REPRESENTATION(#95,#180);
#95=PRODUCT_DEFINITION_SHAPE('Document','',#97);
#96=DESIGN_CONTEXT('3D Mechanical Parts',#169,'design');
#97=PRODUCT_DEFINITION('A','First version',#139,#96);
#98=DATE_TIME_ROLE('classification_date');
#99=DATE_TIME_ROLE('creation_date');
#100=CC_DESIGN_DATE_AND_TIME_ASSIGNMENT(#124,#98,(#103));
#101=CC_DESIGN_DATE_AND_TIME_ASSIGNMENT(#126,#99,(#97));
#102=SECURITY_CLASSIFICATION_LEVEL('unclassified');
#103=SECURITY_CLASSIFICATION('A','Security for version',#102);
#104=CC_DESIGN_SECURITY_CLASSIFICATION(#103,(#139));
#105=APPROVAL_ROLE('Version approval');
#106=APPROVAL_ROLE('Version Security approval');
#107=APPROVAL_ROLE('Definition approval');
#108=APPROVAL_PERSON_ORGANIZATION(#157,#133,#105);
#109=APPROVAL_PERSON_ORGANIZATION(#158,#134,#106);
#110=APPROVAL_PERSON_ORGANIZATION(#161,#135,#107);
#111=COORDINATED_UNIVERSAL_TIME_OFFSET(5,0,.BEHIND.);
#112=LOCAL_TIME(0,0,0.,#111);
#113=LOCAL_TIME(0,0,0.,#111);
#114=LOCAL_TIME(0,0,0.,#111);
#115=LOCAL_TIME(0,0,0.,#111);
#116=LOCAL_TIME(0,0,0.,#111);
#117=CALENDAR_DATE(1999,1,1);
#118=CALENDAR_DATE(1999,1,1);
#119=CALENDAR_DATE(1999,1,1);
#120=CALENDAR_DATE(1999,1,1);
#121=CALENDAR_DATE(1999,1,1);
#122=DATE_AND_TIME(#117,#112);
#123=DATE_AND_TIME(#118,#113);
#124=DATE_AND_TIME(#119,#114);
#125=DATE_AND_TIME(#120,#115);
#126=DATE_AND_TIME(#121,#116);
#127=APPROVAL_DATE_TIME(#122,#133);
#128=APPROVAL_DATE_TIME(#123,#134);
#129=APPROVAL_DATE_TIME(#125,#135);
#130=APPROVAL_STATUS('not_yet_approved');
#131=APPROVAL_STATUS('not_yet_approved');
#132=APPROVAL_STATUS('approved');
#133=APPROVAL(#130,'Version approval');
#134=APPROVAL(#131,'Version Security approval');
#135=APPROVAL(#132,'Definition approval');
#136=CC_DESIGN_APPROVAL(#133,(#139));
#137=CC_DESIGN_APPROVAL(#134,(#103));
#138=CC_DESIGN_APPROVAL(#135,(#97));
#139=PRODUCT_DEFINITION_FORMATION_WITH_SPECIFIED_SOURCE('A',
'First version',#171,.MADE.);
#140=PERSON_AND_ORGANIZATION_ROLE('design_owner');
#141=PERSON_AND_ORGANIZATION_ROLE('creator');
#142=PERSON_AND_ORGANIZATION_ROLE('design_supplier');
#143=PERSON_AND_ORGANIZATION_ROLE('classification_officer');
#144=PERSON_AND_ORGANIZATION_ROLE('creator');
#145=ORGANIZATION('STI','lab','lab');
#146=ORGANIZATION('STI','unknown','unknown');
#147=ORGANIZATION('STI','unknown','unknown');
#148=ORGANIZATION('STI','unknown','unknown');
#149=ORGANIZATION('STI','unknown','unknown');
#150=ORGANIZATION('STI','unknown','unknown');
#151=ORGANIZATION('STI','unknown','unknown');
#152=PERSON('1','Box','vc60',$,$,$);
#153=PERSON('2','last','first',$,$,$);
#154=PERSON('3','President','Mr.',$,$,$);
#155=PERSON_AND_ORGANIZATION(#152,#145);
#156=PERSON_AND_ORGANIZATION(#153,#146);
#157=PERSON_AND_ORGANIZATION(#154,#147);
#158=PERSON_AND_ORGANIZATION(#154,#148);
#159=PERSON_AND_ORGANIZATION(#154,#149);
#160=PERSON_AND_ORGANIZATION(#153,#150);
#161=PERSON_AND_ORGANIZATION(#154,#151);
#162=CC_DESIGN_PERSON_AND_ORGANIZATION_ASSIGNMENT(#155,#140,(#171));
#163=CC_DESIGN_PERSON_AND_ORGANIZATION_ASSIGNMENT(#156,#141,(#139));
#164=CC_DESIGN_PERSON_AND_ORGANIZATION_ASSIGNMENT(#156,#142,(#139));
#165=CC_DESIGN_PERSON_AND_ORGANIZATION_ASSIGNMENT(#159,#143,(#103));
#166=CC_DESIGN_PERSON_AND_ORGANIZATION_ASSIGNMENT(#160,#144,(#97));
#167=PRODUCT_RELATED_PRODUCT_CATEGORY('detail','detail',(#171));
#168=APPLICATION_PROTOCOL_DEFINITION('International Standard',
'config_control_design',1994,#169);
#169=APPLICATION_CONTEXT(
'configuration controlled 3d designs of mechanical parts and assemblies
');
#170=MECHANICAL_CONTEXT('3D Mechanical Parts',#169,'mechanical');
#171=PRODUCT('1','Document','Rhino converted to STEP',(#170));
#172=(
LENGTH_UNIT()
NAMED_UNIT(*)
SI_UNIT(.MILLI.,.METRE.)
);
#173=(
NAMED_UNIT(*)
PLANE_ANGLE_UNIT()
SI_UNIT($,.RADIAN.)
);
#174=DIMENSIONAL_EXPONENTS(0.,0.,0.,0.,0.,0.,0.);
#175=PLANE_ANGLE_MEASURE_WITH_UNIT(PLANE_ANGLE_MEASURE(0.01745329252),#173);
#176=(
CONVERSION_BASED_UNIT('DEGREES',#175)
NAMED_UNIT(#174)
PLANE_ANGLE_UNIT()
);
#177=(
NAMED_UNIT(*)
SI_UNIT($,.STERADIAN.)
SOLID_ANGLE_UNIT()
);
#178=UNCERTAINTY_MEASURE_WITH_UNIT(LENGTH_MEASURE(0.001),#172,
'DISTANCE_ACCURACY_VALUE',
'Maximum model space distance between geometric entities at asserted co
nnectivities');
#179=(
GEOMETRIC_REPRESENTATION_CONTEXT(3)
GLOBAL_UNCERTAINTY_ASSIGNED_CONTEXT((#178))
GLOBAL_UNIT_ASSIGNED_CONTEXT((#177,#176,#172))
REPRESENTATION_CONTEXT('ID1','3D')
);
#180=SHAPE_REPRESENTATION('Document',(#181,#182),#179);
#181=AXIS2_PLACEMENT_3D('',#187,#183,#184);
#182=AXIS2_PLACEMENT_3D('',#244,#185,#186);
#183=DIRECTION($,(0.,0.,1.));
#184=DIRECTION($,(1.,0.,0.));
#185=DIRECTION($,(0.,0.,1.));
#186=DIRECTION($,(1.,0.,0.));
#187=CARTESIAN_POINT($,(0.,0.,0.));
#188=CARTESIAN_POINT($,(75136.4941411851,18928.5879942021,-34.15428710575));
#189=CARTESIAN_POINT($,(75149.6471477774,19910.6863161114,-34.15428710575));
#190=CARTESIAN_POINT($,(75136.4941411851,18928.5879942021,-34.15428710575));
#191=CARTESIAN_POINT($,(75136.4941411851,18928.5879942021,195.84571289425));
#192=CARTESIAN_POINT($,(75136.4941411851,18928.5879942021,195.84571289425));
#193=CARTESIAN_POINT($,(75149.6471477774,19910.6863161114,195.84571289425));
#194=CARTESIAN_POINT($,(75528.0952490734,18928.5879942021,-34.15428710575));
#195=CARTESIAN_POINT($,(75136.4941411851,18928.5879942021,-34.15428710575));
#196=CARTESIAN_POINT($,(75528.0952490771,19910.6863161114,-34.15428710575));
#197=CARTESIAN_POINT($,(75528.0952490734,18928.5879942021,-34.15428710575));
#198=CARTESIAN_POINT($,(75149.6471477774,19910.6863161114,-34.15428710575));
#199=CARTESIAN_POINT($,(75528.0952490771,19910.6863161114,-34.15428710575));
#200=CARTESIAN_POINT($,(75528.0952490734,18928.5879942021,195.84571289425));
#201=CARTESIAN_POINT($,(75136.4941411851,18928.5879942021,195.84571289425));
#202=CARTESIAN_POINT($,(75528.0952490771,19910.6863161114,195.84571289425));
#203=CARTESIAN_POINT($,(75528.0952490734,18928.5879942021,195.84571289425));
#204=CARTESIAN_POINT($,(75149.6471477774,19910.6863161114,195.84571289425));
#205=CARTESIAN_POINT($,(75528.0952490771,19910.6863161114,195.84571289425));
#206=CARTESIAN_POINT($,(75528.0952490734,18928.5879942021,-34.15428710575));
#207=CARTESIAN_POINT($,(75528.0952490734,18928.5879942021,195.84571289425));
#208=CARTESIAN_POINT($,(75528.0952490771,19910.6863161114,-34.15428710575));
#209=CARTESIAN_POINT($,(75528.0952490771,19910.6863161114,195.84571289425));
#210=CARTESIAN_POINT($,(75149.6471477774,19910.6863161114,-34.15428710575));
#211=CARTESIAN_POINT($,(75149.6471477774,19910.6863161114,195.84571289425));
#212=CARTESIAN_POINT($,(75136.4941411851,19910.6863161114,-34.15428710575));
#213=CARTESIAN_POINT($,(75136.4941411851,18928.5879942021,-34.15428710575));
#214=CARTESIAN_POINT($,(75528.0952490771,19910.6863161114,-34.15428710575));
#215=CARTESIAN_POINT($,(75528.0952490771,18928.5879942021,-34.15428710575));
#216=CARTESIAN_POINT($,(75136.4941411851,18928.5879942021,-34.15428710575));
#217=CARTESIAN_POINT($,(75136.4941411851,18928.5879942021,195.84571289425));
#218=CARTESIAN_POINT($,(75528.0952490734,18928.5879942021,-34.15428710575));
#219=CARTESIAN_POINT($,(75528.0952490734,18928.5879942021,195.84571289425));
#220=CARTESIAN_POINT($,(75136.4941411851,19910.6863161114,195.84571289425));
#221=CARTESIAN_POINT($,(75528.0952490771,19910.6863161114,195.84571289425));
#222=CARTESIAN_POINT($,(75136.4941411851,18928.5879942021,195.84571289425));
#223=CARTESIAN_POINT($,(75528.0952490771,18928.5879942021,195.84571289425));
#224=CARTESIAN_POINT($,(75528.0952490734,18928.5879942021,-34.15428710575));
#225=CARTESIAN_POINT($,(75528.0952490734,18928.5879942021,195.84571289425));
#226=CARTESIAN_POINT($,(75528.0952490771,19910.6863161114,-34.15428710575));
#227=CARTESIAN_POINT($,(75528.0952490771,19910.6863161114,195.84571289425));
#228=CARTESIAN_POINT($,(75528.0952490771,19910.6863161114,-34.15428710575));
#229=CARTESIAN_POINT($,(75528.0952490771,19910.6863161114,195.84571289425));
#230=CARTESIAN_POINT($,(75149.6471477774,19910.6863161114,-34.15428710575));
#231=CARTESIAN_POINT($,(75149.6471477774,19910.6863161114,195.84571289425));
#232=CARTESIAN_POINT($,(75149.6471477774,19910.6863161114,-34.15428710575));
#233=CARTESIAN_POINT($,(75149.6471477774,19910.6863161114,195.84571289425));
#234=CARTESIAN_POINT($,(75136.4941411851,18928.5879942021,-34.15428710575));
#235=CARTESIAN_POINT($,(75136.4941411851,18928.5879942021,195.84571289425));
#236=CARTESIAN_POINT($,(75136.4941411851,18928.5879942021,-34.15428710575));
#237=CARTESIAN_POINT($,(75136.4941411851,18928.5879942021,195.84571289425));
#238=CARTESIAN_POINT($,(75528.0952490734,18928.5879942021,-34.15428710575));
#239=CARTESIAN_POINT($,(75528.0952490771,19910.6863161114,-34.15428710575));
#240=CARTESIAN_POINT($,(75149.6471477774,19910.6863161114,-34.15428710575));
#241=CARTESIAN_POINT($,(75528.0952490734,18928.5879942021,195.84571289425));
#242=CARTESIAN_POINT($,(75528.0952490771,19910.6863161114,195.84571289425));
#243=CARTESIAN_POINT($,(75149.6471477774,19910.6863161114,195.84571289425));
#244=CARTESIAN_POINT($,(0.,0.,0.));
ENDSEC;
END-ISO-10303-21;
