ISO-10303-21;
HEADER;
/* Generated by software containing ST-Developer
 * from STEP Tools, Inc. (www.steptools.com) 
 */
/* OPTION: using custom schema-name function */

FILE_DESCRIPTION(
/* description */ (''),
/* implementation_level */ '2;1');

FILE_NAME(
/* name */ '3PFQHC~Z',
/* time_stamp */ '2016-07-22T15:38:12+02:00',
/* author */ (''),
/* organization */ (''),
/* preprocessor_version */ 'ST-DEVELOPER v15',
/* originating_system */ '',
/* authorisation */ '');

FILE_SCHEMA (('AUTOMOTIVE_DESIGN'));
ENDSEC;

DATA;
#10=SHAPE_REPRESENTATION_RELATIONSHIP('','',#103,#13);
#11=PRESENTATION_LAYER_ASSIGNMENT('Predefinito','',(#12));
#12=MANIFOLD_SOLID_BREP('brep_1',#14);
#13=ADVANCED_BREP_SHAPE_REPRESENTATION('brep_rep_0',(#12,#105),#102);
#14=CLOSED_SHELL('',(#15,#16,#17,#18,#19,#20));
#15=ADVANCED_FACE('',(#21),#79,.T.);
#16=ADVANCED_FACE('',(#22),#80,.T.);
#17=ADVANCED_FACE('',(#23),#81,.T.);
#18=ADVANCED_FACE('',(#24),#82,.T.);
#19=ADVANCED_FACE('',(#25),#83,.T.);
#20=ADVANCED_FACE('',(#26),#84,.T.);
#21=FACE_OUTER_BOUND('',#27,.T.);
#22=FACE_OUTER_BOUND('',#28,.T.);
#23=FACE_OUTER_BOUND('',#29,.T.);
#24=FACE_OUTER_BOUND('',#30,.T.);
#25=FACE_OUTER_BOUND('',#31,.T.);
#26=FACE_OUTER_BOUND('',#32,.T.);
#27=EDGE_LOOP('',(#33,#34,#35));
#28=EDGE_LOOP('',(#36,#37,#38));
#29=EDGE_LOOP('',(#39,#40,#41,#42));
#30=EDGE_LOOP('',(#43,#44,#45));
#31=EDGE_LOOP('',(#46,#47,#48));
#32=EDGE_LOOP('',(#49,#50,#51,#52));
#33=ORIENTED_EDGE('',*,*,#57,.F.);
#34=ORIENTED_EDGE('',*,*,#54,.T.);
#35=ORIENTED_EDGE('',*,*,#58,.F.);
#36=ORIENTED_EDGE('',*,*,#53,.T.);
#37=ORIENTED_EDGE('',*,*,#56,.T.);
#38=ORIENTED_EDGE('',*,*,#60,.F.);
#39=ORIENTED_EDGE('',*,*,#56,.F.);
#40=ORIENTED_EDGE('',*,*,#55,.T.);
#41=ORIENTED_EDGE('',*,*,#57,.T.);
#42=ORIENTED_EDGE('',*,*,#62,.F.);
#43=ORIENTED_EDGE('',*,*,#58,.T.);
#44=ORIENTED_EDGE('',*,*,#54,.F.);
#45=ORIENTED_EDGE('',*,*,#59,.F.);
#46=ORIENTED_EDGE('',*,*,#60,.T.);
#47=ORIENTED_EDGE('',*,*,#61,.T.);
#48=ORIENTED_EDGE('',*,*,#53,.F.);
#49=ORIENTED_EDGE('',*,*,#62,.T.);
#50=ORIENTED_EDGE('',*,*,#59,.T.);
#51=ORIENTED_EDGE('',*,*,#55,.F.);
#52=ORIENTED_EDGE('',*,*,#61,.F.);
#53=EDGE_CURVE('',#73,#76,#63,.T.);
#54=EDGE_CURVE('',#75,#74,#64,.T.);
#55=EDGE_CURVE('',#76,#75,#65,.T.);
#56=EDGE_CURVE('',#76,#78,#66,.T.);
#57=EDGE_CURVE('',#75,#77,#67,.T.);
#58=EDGE_CURVE('',#77,#74,#68,.T.);
#59=EDGE_CURVE('',#77,#75,#69,.T.);
#60=EDGE_CURVE('',#73,#78,#70,.T.);
#61=EDGE_CURVE('',#78,#76,#71,.T.);
#62=EDGE_CURVE('',#78,#77,#72,.T.);
#63=(
BOUNDED_CURVE()
B_SPLINE_CURVE(2,(#207,#208,#209),.UNSPECIFIED.,.F.,.F.)
B_SPLINE_CURVE_WITH_KNOTS((3,3),(2071.72902280611,2153.51117395238),
 .UNSPECIFIED.)
CURVE()
GEOMETRIC_REPRESENTATION_ITEM()
RATIONAL_B_SPLINE_CURVE((1.,0.983593562153257,1.))
REPRESENTATION_ITEM('')
);
#64=(
BOUNDED_CURVE()
B_SPLINE_CURVE(2,(#210,#211,#212),.UNSPECIFIED.,.F.,.F.)
B_SPLINE_CURVE_WITH_KNOTS((3,3),(3066.70245863709,3148.4846097823),
 .UNSPECIFIED.)
CURVE()
GEOMETRIC_REPRESENTATION_ITEM()
RATIONAL_B_SPLINE_CURVE((1.,0.983593554273663,1.))
REPRESENTATION_ITEM('')
);
#65=(
BOUNDED_CURVE()
B_SPLINE_CURVE(2,(#213,#214,#215),.UNSPECIFIED.,.F.,.F.)
B_SPLINE_CURVE_WITH_KNOTS((3,3),(2153.51117395238,3066.70245863709),
 .UNSPECIFIED.)
CURVE()
GEOMETRIC_REPRESENTATION_ITEM()
RATIONAL_B_SPLINE_CURVE((1.,0.998769825629532,1.))
REPRESENTATION_ITEM('')
);
#66=(
BOUNDED_CURVE()
B_SPLINE_CURVE(2,(#216,#217,#218,#219,#220),.UNSPECIFIED.,.F.,.F.)
B_SPLINE_CURVE_WITH_KNOTS((3,2,3),(0.,143.449589807879,286.899179615759),
 .UNSPECIFIED.)
CURVE()
GEOMETRIC_REPRESENTATION_ITEM()
RATIONAL_B_SPLINE_CURVE((1.,0.70710678118654,1.,0.70710678118654,1.))
REPRESENTATION_ITEM('')
);
#67=(
BOUNDED_CURVE()
B_SPLINE_CURVE(2,(#221,#222,#223,#224,#225),.UNSPECIFIED.,.F.,.F.)
B_SPLINE_CURVE_WITH_KNOTS((3,2,3),(0.,143.449589807877,286.899179615754),
 .UNSPECIFIED.)
CURVE()
GEOMETRIC_REPRESENTATION_ITEM()
RATIONAL_B_SPLINE_CURVE((1.,0.707106781186548,1.,0.707106781186548,1.))
REPRESENTATION_ITEM('')
);
#68=(
BOUNDED_CURVE()
B_SPLINE_CURVE(2,(#226,#227,#228),.UNSPECIFIED.,.F.,.F.)
B_SPLINE_CURVE_WITH_KNOTS((3,3),(3066.70245863709,3148.4846097823),
 .UNSPECIFIED.)
CURVE()
GEOMETRIC_REPRESENTATION_ITEM()
RATIONAL_B_SPLINE_CURVE((1.,0.983593554273663,1.))
REPRESENTATION_ITEM('')
);
#69=(
BOUNDED_CURVE()
B_SPLINE_CURVE(2,(#229,#230,#231,#232,#233),.UNSPECIFIED.,.F.,.F.)
B_SPLINE_CURVE_WITH_KNOTS((3,2,3),(286.899179615754,430.348769423632,573.798359231509),
 .UNSPECIFIED.)
CURVE()
GEOMETRIC_REPRESENTATION_ITEM()
RATIONAL_B_SPLINE_CURVE((1.,0.707106781186548,1.,0.707106781186548,1.))
REPRESENTATION_ITEM('')
);
#70=(
BOUNDED_CURVE()
B_SPLINE_CURVE(2,(#234,#235,#236),.UNSPECIFIED.,.F.,.F.)
B_SPLINE_CURVE_WITH_KNOTS((3,3),(2071.72902280611,2153.51117393345),
 .UNSPECIFIED.)
CURVE()
GEOMETRIC_REPRESENTATION_ITEM()
RATIONAL_B_SPLINE_CURVE((1.,0.983593562160666,1.))
REPRESENTATION_ITEM('')
);
#71=(
BOUNDED_CURVE()
B_SPLINE_CURVE(2,(#237,#238,#239,#240,#241),.UNSPECIFIED.,.F.,.F.)
B_SPLINE_CURVE_WITH_KNOTS((3,2,3),(286.899179615759,430.348769423634,573.798359231509),
 .UNSPECIFIED.)
CURVE()
GEOMETRIC_REPRESENTATION_ITEM()
RATIONAL_B_SPLINE_CURVE((1.,0.707106781186556,1.,0.707106781186556,1.))
REPRESENTATION_ITEM('')
);
#72=(
BOUNDED_CURVE()
B_SPLINE_CURVE(2,(#242,#243,#244),.UNSPECIFIED.,.F.,.F.)
B_SPLINE_CURVE_WITH_KNOTS((3,3),(2153.51117395238,3066.70245863709),
 .UNSPECIFIED.)
CURVE()
GEOMETRIC_REPRESENTATION_ITEM()
RATIONAL_B_SPLINE_CURVE((1.,0.998769825629532,1.))
REPRESENTATION_ITEM('')
);
#73=VERTEX_POINT('',#201);
#74=VERTEX_POINT('',#202);
#75=VERTEX_POINT('',#203);
#76=VERTEX_POINT('',#204);
#77=VERTEX_POINT('',#205);
#78=VERTEX_POINT('',#206);
#79=(
BOUNDED_SURFACE()
B_SPLINE_SURFACE(2,2,((#111,#112,#113,#114,#115),(#116,#117,#118,#119,#120),
(#121,#122,#123,#124,#125)),.UNSPECIFIED.,.F.,.F.,.F.)
B_SPLINE_SURFACE_WITH_KNOTS((3,3),(3,2,3),(3066.70245863709,3148.4846097823),
(0.,143.449589807877,286.899179615754),.UNSPECIFIED.)
GEOMETRIC_REPRESENTATION_ITEM()
RATIONAL_B_SPLINE_SURFACE(((1.,0.707106781186548,1.,0.707106781186548,1.),
(0.967456280008697,0.684094896095661,0.967456280008697,0.684094896095661,
0.967456280008697),(0.967456280008697,0.684094896095661,0.967456280008697,
0.684094896095661,0.967456280008697)))
REPRESENTATION_ITEM('')
SURFACE()
);
#80=(
BOUNDED_SURFACE()
B_SPLINE_SURFACE(2,2,((#126,#127,#128,#129,#130),(#131,#132,#133,#134,#135),
(#136,#137,#138,#139,#140)),.UNSPECIFIED.,.F.,.F.,.F.)
B_SPLINE_SURFACE_WITH_KNOTS((3,3),(3,2,3),(2071.72902280611,2153.51117395238),
(0.,143.449589807877,286.899179615754),.UNSPECIFIED.)
GEOMETRIC_REPRESENTATION_ITEM()
RATIONAL_B_SPLINE_SURFACE(((0.967456279991283,0.684094896083347,0.967456279991283,
0.684094896083347,0.967456279991283),(0.967456287750308,0.684094901569807,
0.967456287750308,0.684094901569807,0.967456287750308),(1.,0.707106781186548,
1.,0.707106781186548,1.)))
REPRESENTATION_ITEM('')
SURFACE()
);
#81=(
BOUNDED_SURFACE()
B_SPLINE_SURFACE(2,2,((#141,#142,#143,#144,#145),(#146,#147,#148,#149,#150),
(#151,#152,#153,#154,#155)),.UNSPECIFIED.,.F.,.F.,.F.)
B_SPLINE_SURFACE_WITH_KNOTS((3,3),(3,2,3),(2153.51117395238,3066.70245863709),
(0.,143.449589807877,286.899179615754),.UNSPECIFIED.)
GEOMETRIC_REPRESENTATION_ITEM()
RATIONAL_B_SPLINE_SURFACE(((1.,0.707106781186548,1.,0.707106781186548,1.),
(0.998769825629532,0.706236916547148,0.998769825629532,0.706236916547148,
0.998769825629532),(1.,0.707106781186548,1.,0.707106781186548,1.)))
REPRESENTATION_ITEM('')
SURFACE()
);
#82=(
BOUNDED_SURFACE()
B_SPLINE_SURFACE(2,2,((#156,#157,#158,#159,#160),(#161,#162,#163,#164,#165),
(#166,#167,#168,#169,#170)),.UNSPECIFIED.,.F.,.F.,.F.)
B_SPLINE_SURFACE_WITH_KNOTS((3,3),(3,2,3),(3066.70245863709,3148.4846097823),
(286.899179615754,430.348769423632,573.798359231509),.UNSPECIFIED.)
GEOMETRIC_REPRESENTATION_ITEM()
RATIONAL_B_SPLINE_SURFACE(((1.,0.707106781186548,1.,0.707106781186548,1.),
(0.967456280008697,0.684094896095661,0.967456280008697,0.684094896095661,
0.967456280008697),(0.967456280008697,0.684094896095661,0.967456280008697,
0.684094896095661,0.967456280008697)))
REPRESENTATION_ITEM('')
SURFACE()
);
#83=(
BOUNDED_SURFACE()
B_SPLINE_SURFACE(2,2,((#171,#172,#173,#174,#175),(#176,#177,#178,#179,#180),
(#181,#182,#183,#184,#185)),.UNSPECIFIED.,.F.,.F.,.F.)
B_SPLINE_SURFACE_WITH_KNOTS((3,3),(3,2,3),(2071.72902280611,2153.51117395238),
(286.899179615754,430.348769423632,573.798359231509),.UNSPECIFIED.)
GEOMETRIC_REPRESENTATION_ITEM()
RATIONAL_B_SPLINE_SURFACE(((0.967456279991283,0.684094896083347,0.967456279991283,
0.684094896083347,0.967456279991283),(0.967456287750308,0.684094901569807,
0.967456287750308,0.684094901569807,0.967456287750308),(1.,0.707106781186548,
1.,0.707106781186548,1.)))
REPRESENTATION_ITEM('')
SURFACE()
);
#84=(
BOUNDED_SURFACE()
B_SPLINE_SURFACE(2,2,((#186,#187,#188,#189,#190),(#191,#192,#193,#194,#195),
(#196,#197,#198,#199,#200)),.UNSPECIFIED.,.F.,.F.,.F.)
B_SPLINE_SURFACE_WITH_KNOTS((3,3),(3,2,3),(2153.51117395238,3066.70245863709),
(286.899179615754,430.348769423632,573.798359231509),.UNSPECIFIED.)
GEOMETRIC_REPRESENTATION_ITEM()
RATIONAL_B_SPLINE_SURFACE(((1.,0.707106781186548,1.,0.707106781186548,1.),
(0.998769825629532,0.706236916547148,0.998769825629532,0.706236916547148,
0.998769825629532),(1.,0.707106781186548,1.,0.707106781186548,1.)))
REPRESENTATION_ITEM('')
SURFACE()
);
#85=SHAPE_DEFINITION_REPRESENTATION(#86,#103);
#86=PRODUCT_DEFINITION_SHAPE('Document','',#88);
#87=PRODUCT_DEFINITION_CONTEXT('3D Mechanical Parts',#92,'design');
#88=PRODUCT_DEFINITION('A','First version',#89,#87);
#89=PRODUCT_DEFINITION_FORMATION_WITH_SPECIFIED_SOURCE('A',
'First version',#94,.MADE.);
#90=PRODUCT_RELATED_PRODUCT_CATEGORY('tool','tool',(#94));
#91=APPLICATION_PROTOCOL_DEFINITION('Draft International Standard',
'automotive_design',1999,#92);
#92=APPLICATION_CONTEXT(
'data for automotive mechanical design processes');
#93=PRODUCT_CONTEXT('3D Mechanical Parts',#92,'mechanical');
#94=PRODUCT('Document','Document','Rhino converted to STEP',(#93));
#95=(
LENGTH_UNIT()
NAMED_UNIT(*)
SI_UNIT(.MILLI.,.METRE.)
);
#96=(
NAMED_UNIT(*)
PLANE_ANGLE_UNIT()
SI_UNIT($,.RADIAN.)
);
#97=DIMENSIONAL_EXPONENTS(0.,0.,0.,0.,0.,0.,0.);
#98=PLANE_ANGLE_MEASURE_WITH_UNIT(PLANE_ANGLE_MEASURE(0.01745329252),#96);
#99=(
CONVERSION_BASED_UNIT('DEGREES',#98)
NAMED_UNIT(#97)
PLANE_ANGLE_UNIT()
);
#100=(
NAMED_UNIT(*)
SI_UNIT($,.STERADIAN.)
SOLID_ANGLE_UNIT()
);
#101=UNCERTAINTY_MEASURE_WITH_UNIT(LENGTH_MEASURE(0.001),#95,
'DISTANCE_ACCURACY_VALUE',
'Maximum model space distance between geometric entities at asserted c
onnectivities');
#102=(
GEOMETRIC_REPRESENTATION_CONTEXT(3)
GLOBAL_UNCERTAINTY_ASSIGNED_CONTEXT((#101))
GLOBAL_UNIT_ASSIGNED_CONTEXT((#100,#99,#95))
REPRESENTATION_CONTEXT('ID1','3D')
);
#103=SHAPE_REPRESENTATION('Document',(#104,#105),#102);
#104=AXIS2_PLACEMENT_3D('',#110,#106,#107);
#105=AXIS2_PLACEMENT_3D('',#245,#108,#109);
#106=DIRECTION('',(0.,0.,1.));
#107=DIRECTION('',(1.,0.,0.));
#108=DIRECTION('',(0.,0.,1.));
#109=DIRECTION('',(1.,0.,0.));
#110=CARTESIAN_POINT('',(0.,0.,0.));
#111=CARTESIAN_POINT('',(318712.077546079,28261.6634543412,166.441098881107));
#112=CARTESIAN_POINT('',(318712.077546088,28181.6634542951,166.44109888111));
#113=CARTESIAN_POINT('',(318712.077546088,28181.6634542951,86.4410988350548));
#114=CARTESIAN_POINT('',(318712.077546088,28181.6634542951,6.44109878900002));
#115=CARTESIAN_POINT('',(318712.077546079,28261.6634543412,6.44109878899729));
#116=CARTESIAN_POINT('',(318698.061522694,28261.6634543397,127.786636480436));
#117=CARTESIAN_POINT('',(318698.061522698,28220.3179166943,127.78663648044));
#118=CARTESIAN_POINT('',(318698.061522698,28220.3179166943,86.4410988350557));
#119=CARTESIAN_POINT('',(318698.061522698,28220.3179166943,45.0955611896716));
#120=CARTESIAN_POINT('',(318698.061522694,28261.6634543397,45.0955611896679));
#121=CARTESIAN_POINT('',(318698.061522689,28261.6634543397,86.4410988350521));
#122=CARTESIAN_POINT('',(318698.061522689,28261.6634543397,86.4410988350521));
#123=CARTESIAN_POINT('',(318698.061522689,28261.6634543397,86.4410988350521));
#124=CARTESIAN_POINT('',(318698.061522689,28261.6634543397,86.4410988350521));
#125=CARTESIAN_POINT('',(318698.061522689,28261.6634543397,86.4410988350521));
#126=CARTESIAN_POINT('',(319598.061522698,28261.6634544341,86.4410988350521));
#127=CARTESIAN_POINT('',(319598.061522698,28261.6634544341,86.4410988350521));
#128=CARTESIAN_POINT('',(319598.061522698,28261.6634544341,86.4410988350521));
#129=CARTESIAN_POINT('',(319598.061522698,28261.6634544341,86.4410988350521));
#130=CARTESIAN_POINT('',(319598.061522698,28261.6634544341,86.4410988350521));
#131=CARTESIAN_POINT('',(319598.061519242,28261.6634544341,127.786645916066));
#132=CARTESIAN_POINT('',(319598.061519247,28220.3179073531,127.78664591607));
#133=CARTESIAN_POINT('',(319598.061519247,28220.3179073531,86.4410988350557));
#134=CARTESIAN_POINT('',(319598.061519247,28220.3179073531,45.0955517540417));
#135=CARTESIAN_POINT('',(319598.061519242,28261.6634544341,45.095551754038));
#136=CARTESIAN_POINT('',(319584.04549931,28261.6634544327,166.441098791645));
#137=CARTESIAN_POINT('',(319584.045499318,28181.6634544761,166.44109879165));
#138=CARTESIAN_POINT('',(319584.045499318,28181.6634544761,86.4410988350567));
#139=CARTESIAN_POINT('',(319584.045499318,28181.6634544761,6.44109887846341));
#140=CARTESIAN_POINT('',(319584.04549931,28261.6634544327,6.44109887845883));
#141=CARTESIAN_POINT('',(319584.045499353,28261.6634544327,166.44109878772));
#142=CARTESIAN_POINT('',(319584.045499361,28181.66345448,166.441098787725));
#143=CARTESIAN_POINT('',(319584.045499361,28181.66345448,86.4410988350567));
#144=CARTESIAN_POINT('',(319584.045499361,28181.66345448,6.44109888238879));
#145=CARTESIAN_POINT('',(319584.045499353,28261.6634544327,6.44109888238421));
#146=CARTESIAN_POINT('',(319148.061522719,28261.6634543869,189.100735485368));
#147=CARTESIAN_POINT('',(319148.061522729,28159.0038177366,189.100735485372));
#148=CARTESIAN_POINT('',(319148.061522729,28159.0038177366,86.4410988350557));
#149=CARTESIAN_POINT('',(319148.061522729,28159.0038177366,-16.2185378152603));
#150=CARTESIAN_POINT('',(319148.061522719,28261.6634543869,-16.218537815264));
#151=CARTESIAN_POINT('',(318712.077546079,28261.6634543412,166.441098881151));
#152=CARTESIAN_POINT('',(318712.077546088,28181.6634542951,166.441098881153));
#153=CARTESIAN_POINT('',(318712.077546088,28181.6634542951,86.4410988350548));
#154=CARTESIAN_POINT('',(318712.077546088,28181.6634542951,6.44109878895637));
#155=CARTESIAN_POINT('',(318712.077546079,28261.6634543412,6.44109878895364));
#156=CARTESIAN_POINT('',(318712.077546079,28261.6634543412,6.44109878900053));
#157=CARTESIAN_POINT('',(318712.077546071,28341.6634543872,6.44109878899961));
#158=CARTESIAN_POINT('',(318712.077546071,28341.6634543872,86.4410988350512));
#159=CARTESIAN_POINT('',(318712.077546071,28341.6634543872,166.441098881103));
#160=CARTESIAN_POINT('',(318712.077546079,28261.6634543412,166.441098881104));
#161=CARTESIAN_POINT('',(318698.061522694,28261.6634543397,45.0955611896737));
#162=CARTESIAN_POINT('',(318698.061522689,28303.0089919851,45.09556118967));
#163=CARTESIAN_POINT('',(318698.061522689,28303.0089919851,86.4410988350485));
#164=CARTESIAN_POINT('',(318698.061522689,28303.0089919851,127.786636480427));
#165=CARTESIAN_POINT('',(318698.061522694,28261.6634543397,127.786636480431));
#166=CARTESIAN_POINT('',(318698.061522689,28261.6634543397,86.4410988350521));
#167=CARTESIAN_POINT('',(318698.061522689,28261.6634543397,86.4410988350521));
#168=CARTESIAN_POINT('',(318698.061522689,28261.6634543397,86.4410988350521));
#169=CARTESIAN_POINT('',(318698.061522689,28261.6634543397,86.4410988350521));
#170=CARTESIAN_POINT('',(318698.061522689,28261.6634543397,86.4410988350521));
#171=CARTESIAN_POINT('',(319598.061522698,28261.6634544341,86.4410988350521));
#172=CARTESIAN_POINT('',(319598.061522698,28261.6634544341,86.4410988350521));
#173=CARTESIAN_POINT('',(319598.061522698,28261.6634544341,86.4410988350521));
#174=CARTESIAN_POINT('',(319598.061522698,28261.6634544341,86.4410988350521));
#175=CARTESIAN_POINT('',(319598.061522698,28261.6634544341,86.4410988350521));
#176=CARTESIAN_POINT('',(319598.061519242,28261.6634544341,45.0955517540403));
#177=CARTESIAN_POINT('',(319598.061519238,28303.0090015151,45.0955517540403));
#178=CARTESIAN_POINT('',(319598.061519238,28303.0090015151,86.4410988350521));
#179=CARTESIAN_POINT('',(319598.061519238,28303.0090015151,127.786645916064));
#180=CARTESIAN_POINT('',(319598.061519242,28261.6634544341,127.786645916064));
#181=CARTESIAN_POINT('',(319584.04549931,28261.6634544327,6.44109887846207));
#182=CARTESIAN_POINT('',(319584.045499301,28341.6634543893,6.44109887846299));
#183=CARTESIAN_POINT('',(319584.045499301,28341.6634543893,86.441098835053));
#184=CARTESIAN_POINT('',(319584.045499301,28341.6634543893,166.441098791643));
#185=CARTESIAN_POINT('',(319584.04549931,28261.6634544327,166.441098791642));
#186=CARTESIAN_POINT('',(319584.045499353,28261.6634544327,6.44109888238745));
#187=CARTESIAN_POINT('',(319584.045499344,28341.6634543853,6.44109888238837));
#188=CARTESIAN_POINT('',(319584.045499344,28341.6634543853,86.441098835053));
#189=CARTESIAN_POINT('',(319584.045499344,28341.6634543853,166.441098787718));
#190=CARTESIAN_POINT('',(319584.045499353,28261.6634544327,166.441098787717));
#191=CARTESIAN_POINT('',(319148.061522719,28261.6634543869,-16.2185378152606));
#192=CARTESIAN_POINT('',(319148.061522708,28364.3230910372,-16.2185378152606));
#193=CARTESIAN_POINT('',(319148.061522708,28364.3230910372,86.4410988350521));
#194=CARTESIAN_POINT('',(319148.061522708,28364.3230910372,189.100735485365));
#195=CARTESIAN_POINT('',(319148.061522719,28261.6634543869,189.100735485365));
#196=CARTESIAN_POINT('',(318712.077546079,28261.6634543412,6.44109878895688));
#197=CARTESIAN_POINT('',(318712.077546071,28341.6634543873,6.44109878895596));
#198=CARTESIAN_POINT('',(318712.077546071,28341.6634543873,86.4410988350512));
#199=CARTESIAN_POINT('',(318712.077546071,28341.6634543873,166.441098881146));
#200=CARTESIAN_POINT('',(318712.077546079,28261.6634543412,166.441098881147));
#201=CARTESIAN_POINT('',(319598.061522698,28261.6634544341,86.4410988350521));
#202=CARTESIAN_POINT('',(318698.061522689,28261.6634543397,86.4410988350521));
#203=CARTESIAN_POINT('',(318712.077546079,28261.6634543412,166.441098881105));
#204=CARTESIAN_POINT('',(319584.045499353,28261.6634544327,166.441098787718));
#205=CARTESIAN_POINT('',(318712.077546079,28261.6634543412,6.44109878899528));
#206=CARTESIAN_POINT('',(319584.045499353,28261.6634544327,6.44109888238583));
#207=CARTESIAN_POINT('',(319598.061522698,28261.6634544341,86.4410988350521));
#208=CARTESIAN_POINT('',(319598.061519242,28261.6634544341,127.786645916067));
#209=CARTESIAN_POINT('',(319584.04549931,28261.6634544327,166.441098791644));
#210=CARTESIAN_POINT('',(318712.077546079,28261.6634543412,166.441098881105));
#211=CARTESIAN_POINT('',(318698.061522694,28261.6634543397,127.786636480432));
#212=CARTESIAN_POINT('',(318698.061522689,28261.6634543397,86.4410988350483));
#213=CARTESIAN_POINT('',(319584.045499353,28261.6634544327,166.441098787718));
#214=CARTESIAN_POINT('',(319148.061522719,28261.6634543869,189.100735485368));
#215=CARTESIAN_POINT('',(318712.077546079,28261.6634543412,166.441098881149));
#216=CARTESIAN_POINT('',(319584.045499353,28261.6634544327,166.441098787718));
#217=CARTESIAN_POINT('',(319584.045499361,28181.66345448,166.441098787718));
#218=CARTESIAN_POINT('',(319584.045499361,28181.66345448,86.4410988350503));
#219=CARTESIAN_POINT('',(319584.045499361,28181.66345448,6.44109888238226));
#220=CARTESIAN_POINT('',(319584.045499353,28261.6634544327,6.44109888238583));
#221=CARTESIAN_POINT('',(318712.077546079,28261.6634543412,166.441098881109));
#222=CARTESIAN_POINT('',(318712.077546088,28181.6634542951,166.441098881109));
#223=CARTESIAN_POINT('',(318712.077546088,28181.6634542951,86.4410988350521));
#224=CARTESIAN_POINT('',(318712.077546088,28181.6634542951,6.44109878899528));
#225=CARTESIAN_POINT('',(318712.077546079,28261.6634543412,6.44109878899528));
#226=CARTESIAN_POINT('',(318712.077546079,28261.6634543412,6.44109878900053));
#227=CARTESIAN_POINT('',(318698.061522694,28261.6634543397,45.0955611896737));
#228=CARTESIAN_POINT('',(318698.061522689,28261.6634543397,86.4410988350568));
#229=CARTESIAN_POINT('',(318712.077546079,28261.6634543412,6.44109878899528));
#230=CARTESIAN_POINT('',(318712.077546071,28341.6634543872,6.44109878899526));
#231=CARTESIAN_POINT('',(318712.077546071,28341.6634543872,86.4410988350521));
#232=CARTESIAN_POINT('',(318712.077546071,28341.6634543872,166.441098881109));
#233=CARTESIAN_POINT('',(318712.077546079,28261.6634543412,166.441098881109));
#234=CARTESIAN_POINT('',(319598.061522698,28261.6634544341,86.4410988350523));
#235=CARTESIAN_POINT('',(319598.061519242,28261.6634544341,45.095551763609));
#236=CARTESIAN_POINT('',(319584.045499316,28261.6634544327,6.44109889577159));
#237=CARTESIAN_POINT('',(319584.045499353,28261.6634544327,6.44109888238583));
#238=CARTESIAN_POINT('',(319584.045499344,28341.6634543853,6.44109888238942));
#239=CARTESIAN_POINT('',(319584.045499344,28341.6634543853,86.4410988350539));
#240=CARTESIAN_POINT('',(319584.045499344,28341.6634543853,166.441098787718));
#241=CARTESIAN_POINT('',(319584.045499353,28261.6634544327,166.441098787718));
#242=CARTESIAN_POINT('',(319584.045499353,28261.6634544327,6.44109888238745));
#243=CARTESIAN_POINT('',(319148.061522719,28261.6634543869,-16.2185378152606));
#244=CARTESIAN_POINT('',(318712.077546079,28261.6634543412,6.44109878895688));
#245=CARTESIAN_POINT('',(0.,0.,0.));
ENDSEC;
END-ISO-10303-21;
