ISO-10303-21;
HEADER;
/* Generated by software containing ST-Developer
 * from STEP Tools, Inc. (www.steptools.com) 
 */
/* OPTION: using custom schema-name function */

FILE_DESCRIPTION(
/* description */ (''),
/* implementation_level */ '2;1');

FILE_NAME(
/* name */ 'tav. 43',
/* time_stamp */ '2013-07-16T12:38:40+02:00',
/* author */ (''),
/* organization */ (''),
/* preprocessor_version */ 'ST-DEVELOPER v10',
/* originating_system */ '',
/* authorisation */ '');

FILE_SCHEMA (('CONFIG_CONTROL_DESIGN'));
ENDSEC;

DATA;
#10=SHAPE_REPRESENTATION_RELATIONSHIP('','',#212,#12);
#11=MANIFOLD_SOLID_BREP('brep_1',#13);
#12=ADVANCED_BREP_SHAPE_REPRESENTATION($,(#11,#214),#211);
#13=CLOSED_SHELL($,(#14,#15,#16,#17,#18,#19,#20,#21,#22,#23));
#14=ADVANCED_FACE($,(#24),#100,.T.);
#15=ADVANCED_FACE($,(#25),#101,.T.);
#16=ADVANCED_FACE($,(#26),#102,.T.);
#17=ADVANCED_FACE($,(#27),#103,.T.);
#18=ADVANCED_FACE($,(#28),#104,.T.);
#19=ADVANCED_FACE($,(#29),#105,.T.);
#20=ADVANCED_FACE($,(#30),#106,.T.);
#21=ADVANCED_FACE($,(#31),#107,.T.);
#22=ADVANCED_FACE($,(#32),#108,.T.);
#23=ADVANCED_FACE($,(#33),#109,.T.);
#24=FACE_OUTER_BOUND($,#34,.T.);
#25=FACE_OUTER_BOUND($,#35,.T.);
#26=FACE_OUTER_BOUND($,#36,.T.);
#27=FACE_OUTER_BOUND($,#37,.T.);
#28=FACE_OUTER_BOUND($,#38,.T.);
#29=FACE_OUTER_BOUND($,#39,.T.);
#30=FACE_OUTER_BOUND($,#40,.T.);
#31=FACE_OUTER_BOUND($,#41,.T.);
#32=FACE_OUTER_BOUND($,#42,.T.);
#33=FACE_OUTER_BOUND($,#43,.T.);
#34=EDGE_LOOP($,(#44,#45,#46));
#35=EDGE_LOOP($,(#47,#48,#49));
#36=EDGE_LOOP($,(#50,#51,#52));
#37=EDGE_LOOP($,(#53,#54,#55));
#38=EDGE_LOOP($,(#56,#57,#58));
#39=EDGE_LOOP($,(#59,#60,#61));
#40=EDGE_LOOP($,(#62,#63,#64));
#41=EDGE_LOOP($,(#65,#66,#67));
#42=EDGE_LOOP($,(#68,#69,#70,#71));
#43=EDGE_LOOP($,(#72,#73,#74,#75));
#44=ORIENTED_EDGE($,*,*,#77,.T.);
#45=ORIENTED_EDGE($,*,*,#78,.T.);
#46=ORIENTED_EDGE($,*,*,#76,.T.);
#47=ORIENTED_EDGE($,*,*,#80,.F.);
#48=ORIENTED_EDGE($,*,*,#77,.F.);
#49=ORIENTED_EDGE($,*,*,#79,.F.);
#50=ORIENTED_EDGE($,*,*,#81,.T.);
#51=ORIENTED_EDGE($,*,*,#82,.F.);
#52=ORIENTED_EDGE($,*,*,#79,.T.);
#53=ORIENTED_EDGE($,*,*,#82,.T.);
#54=ORIENTED_EDGE($,*,*,#84,.T.);
#55=ORIENTED_EDGE($,*,*,#83,.F.);
#56=ORIENTED_EDGE($,*,*,#86,.F.);
#57=ORIENTED_EDGE($,*,*,#84,.F.);
#58=ORIENTED_EDGE($,*,*,#85,.T.);
#59=ORIENTED_EDGE($,*,*,#86,.T.);
#60=ORIENTED_EDGE($,*,*,#88,.F.);
#61=ORIENTED_EDGE($,*,*,#87,.F.);
#62=ORIENTED_EDGE($,*,*,#89,.T.);
#63=ORIENTED_EDGE($,*,*,#90,.T.);
#64=ORIENTED_EDGE($,*,*,#88,.T.);
#65=ORIENTED_EDGE($,*,*,#91,.F.);
#66=ORIENTED_EDGE($,*,*,#90,.F.);
#67=ORIENTED_EDGE($,*,*,#78,.F.);
#68=ORIENTED_EDGE($,*,*,#91,.T.);
#69=ORIENTED_EDGE($,*,*,#80,.T.);
#70=ORIENTED_EDGE($,*,*,#83,.T.);
#71=ORIENTED_EDGE($,*,*,#87,.T.);
#72=ORIENTED_EDGE($,*,*,#89,.F.);
#73=ORIENTED_EDGE($,*,*,#85,.F.);
#74=ORIENTED_EDGE($,*,*,#81,.F.);
#75=ORIENTED_EDGE($,*,*,#76,.F.);
#76=EDGE_CURVE($,#94,#92,#110,.T.);
#77=EDGE_CURVE($,#92,#93,#111,.T.);
#78=EDGE_CURVE($,#93,#94,#112,.T.);
#79=EDGE_CURVE($,#95,#92,#113,.T.);
#80=EDGE_CURVE($,#93,#95,#114,.T.);
#81=EDGE_CURVE($,#92,#96,#115,.T.);
#82=EDGE_CURVE($,#95,#96,#116,.T.);
#83=EDGE_CURVE($,#95,#97,#117,.T.);
#84=EDGE_CURVE($,#96,#97,#118,.T.);
#85=EDGE_CURVE($,#96,#98,#119,.T.);
#86=EDGE_CURVE($,#97,#98,#120,.T.);
#87=EDGE_CURVE($,#97,#99,#121,.T.);
#88=EDGE_CURVE($,#99,#98,#122,.T.);
#89=EDGE_CURVE($,#98,#94,#123,.T.);
#90=EDGE_CURVE($,#94,#99,#124,.T.);
#91=EDGE_CURVE($,#99,#93,#125,.T.);
#92=VERTEX_POINT($,#292);
#93=VERTEX_POINT($,#293);
#94=VERTEX_POINT($,#294);
#95=VERTEX_POINT($,#295);
#96=VERTEX_POINT($,#296);
#97=VERTEX_POINT($,#297);
#98=VERTEX_POINT($,#298);
#99=VERTEX_POINT($,#299);
#100=B_SPLINE_SURFACE_WITH_KNOTS($,1,1,((#252,#253),(#254,#255)),.UNSPECIFIED.,
.F.,.F.,.F.,(2,2),(2,2),(-206.760731281355,-1.73727698893345E-12),(-47.4341649025261,
426.907484122724),.UNSPECIFIED.);
#101=B_SPLINE_SURFACE_WITH_KNOTS($,1,1,((#256,#257),(#258,#259)),.UNSPECIFIED.,
.F.,.F.,.F.,(2,2),(2,2),(-449.999999999993,0.),(0.,300.),.UNSPECIFIED.);
#102=B_SPLINE_SURFACE_WITH_KNOTS($,1,1,((#260,#261),(#262,#263)),.UNSPECIFIED.,
.F.,.F.,.F.,(2,2),(2,2),(-47.4341649025261,426.907484122724),(-206.760731281355,
-1.73727698893345E-12),.UNSPECIFIED.);
#103=B_SPLINE_SURFACE_WITH_KNOTS($,1,1,((#264,#265),(#266,#267)),.UNSPECIFIED.,
.F.,.F.,.F.,(2,2),(2,2),(0.,300.),(-449.999999999993,0.),.UNSPECIFIED.);
#104=B_SPLINE_SURFACE_WITH_KNOTS($,1,1,((#268,#269),(#270,#271)),.UNSPECIFIED.,
.F.,.F.,.F.,(2,2),(2,2),(-206.760731281355,-1.73727698893345E-12),(-47.4341649025261,
426.907484122724),.UNSPECIFIED.);
#105=B_SPLINE_SURFACE_WITH_KNOTS($,1,1,((#272,#273),(#274,#275)),.UNSPECIFIED.,
.F.,.F.,.F.,(2,2),(2,2),(0.,300.),(-449.999999999993,0.),.UNSPECIFIED.);
#106=B_SPLINE_SURFACE_WITH_KNOTS($,1,1,((#276,#277),(#278,#279)),.UNSPECIFIED.,
.F.,.F.,.F.,(2,2),(2,2),(-47.4341649025261,426.907484122724),(-206.760731281355,
-1.73727698893345E-12),.UNSPECIFIED.);
#107=B_SPLINE_SURFACE_WITH_KNOTS($,1,1,((#280,#281),(#282,#283)),.UNSPECIFIED.,
.F.,.F.,.F.,(2,2),(2,2),(-449.999999999993,0.),(0.,300.),.UNSPECIFIED.);
#108=B_SPLINE_SURFACE_WITH_KNOTS($,1,1,((#284,#285),(#286,#287)),.UNSPECIFIED.,
.F.,.F.,.F.,(2,2),(2,2),(-300.,0.),(0.,300.),.UNSPECIFIED.);
#109=B_SPLINE_SURFACE_WITH_KNOTS($,1,1,((#288,#289),(#290,#291)),.UNSPECIFIED.,
.F.,.F.,.F.,(2,2),(2,2),(7.31859017832903E-13,212.132034355965),(-212.132034355963,
1.74438241629105E-12),.UNSPECIFIED.);
#110=B_SPLINE_CURVE_WITH_KNOTS($,1,(#220,#221),.UNSPECIFIED.,.F.,.F.,(2,
2),(-212.132034355964,0.),.UNSPECIFIED.);
#111=B_SPLINE_CURVE_WITH_KNOTS($,1,(#222,#223),.UNSPECIFIED.,.F.,.F.,(2,
2),(-1160.81533240646,-686.473683381214),.UNSPECIFIED.);
#112=B_SPLINE_CURVE_WITH_KNOTS($,1,(#224,#225),.UNSPECIFIED.,.F.,.F.,(2,
2),(-686.473683381214,-212.132034355964),.UNSPECIFIED.);
#113=B_SPLINE_CURVE_WITH_KNOTS($,1,(#226,#227),.UNSPECIFIED.,.F.,.F.,(2,
2),(0.,474.34164902525),.UNSPECIFIED.);
#114=B_SPLINE_CURVE_WITH_KNOTS($,1,(#228,#229),.UNSPECIFIED.,.F.,.F.,(2,
2),(948.6832980505,1248.6832980505),.UNSPECIFIED.);
#115=B_SPLINE_CURVE_WITH_KNOTS($,1,(#230,#231),.UNSPECIFIED.,.F.,.F.,(2,
2),(0.,212.132034355964),.UNSPECIFIED.);
#116=B_SPLINE_CURVE_WITH_KNOTS($,1,(#232,#233),.UNSPECIFIED.,.F.,.F.,(2,
2),(-686.473683381214,-212.132034355964),.UNSPECIFIED.);
#117=B_SPLINE_CURVE_WITH_KNOTS($,1,(#234,#235),.UNSPECIFIED.,.F.,.F.,(2,
2),(-1248.6832980505,-948.6832980505),.UNSPECIFIED.);
#118=B_SPLINE_CURVE_WITH_KNOTS($,1,(#236,#237),.UNSPECIFIED.,.F.,.F.,(2,
2),(474.34164902525,948.6832980505),.UNSPECIFIED.);
#119=B_SPLINE_CURVE_WITH_KNOTS($,1,(#238,#239),.UNSPECIFIED.,.F.,.F.,(2,
2),(-212.132034355964,0.),.UNSPECIFIED.);
#120=B_SPLINE_CURVE_WITH_KNOTS($,1,(#240,#241),.UNSPECIFIED.,.F.,.F.,(2,
2),(686.473683381214,1160.81533240646),.UNSPECIFIED.);
#121=B_SPLINE_CURVE_WITH_KNOTS($,1,(#242,#243),.UNSPECIFIED.,.F.,.F.,(2,
2),(-1248.6832980505,-948.6832980505),.UNSPECIFIED.);
#122=B_SPLINE_CURVE_WITH_KNOTS($,1,(#244,#245),.UNSPECIFIED.,.F.,.F.,(2,
2),(-948.6832980505,-474.34164902525),.UNSPECIFIED.);
#123=B_SPLINE_CURVE_WITH_KNOTS($,1,(#246,#247),.UNSPECIFIED.,.F.,.F.,(2,
2),(0.,212.132034355964),.UNSPECIFIED.);
#124=B_SPLINE_CURVE_WITH_KNOTS($,1,(#248,#249),.UNSPECIFIED.,.F.,.F.,(2,
2),(212.132034355964,686.473683381214),.UNSPECIFIED.);
#125=B_SPLINE_CURVE_WITH_KNOTS($,1,(#250,#251),.UNSPECIFIED.,.F.,.F.,(2,
2),(948.6832980505,1248.6832980505),.UNSPECIFIED.);
#126=SHAPE_DEFINITION_REPRESENTATION(#127,#212);
#127=PRODUCT_DEFINITION_SHAPE('Document','',#129);
#128=DESIGN_CONTEXT('3D Mechanical Parts',#201,'design');
#129=PRODUCT_DEFINITION('A','First version',#171,#128);
#130=DATE_TIME_ROLE('classification_date');
#131=DATE_TIME_ROLE('creation_date');
#132=CC_DESIGN_DATE_AND_TIME_ASSIGNMENT(#156,#130,(#135));
#133=CC_DESIGN_DATE_AND_TIME_ASSIGNMENT(#158,#131,(#129));
#134=SECURITY_CLASSIFICATION_LEVEL('unclassified');
#135=SECURITY_CLASSIFICATION('A','Security for version',#134);
#136=CC_DESIGN_SECURITY_CLASSIFICATION(#135,(#171));
#137=APPROVAL_ROLE('Version approval');
#138=APPROVAL_ROLE('Version Security approval');
#139=APPROVAL_ROLE('Definition approval');
#140=APPROVAL_PERSON_ORGANIZATION(#189,#165,#137);
#141=APPROVAL_PERSON_ORGANIZATION(#190,#166,#138);
#142=APPROVAL_PERSON_ORGANIZATION(#193,#167,#139);
#143=COORDINATED_UNIVERSAL_TIME_OFFSET(5,0,.BEHIND.);
#144=LOCAL_TIME(0,0,0.,#143);
#145=LOCAL_TIME(0,0,0.,#143);
#146=LOCAL_TIME(0,0,0.,#143);
#147=LOCAL_TIME(0,0,0.,#143);
#148=LOCAL_TIME(0,0,0.,#143);
#149=CALENDAR_DATE(1999,1,1);
#150=CALENDAR_DATE(1999,1,1);
#151=CALENDAR_DATE(1999,1,1);
#152=CALENDAR_DATE(1999,1,1);
#153=CALENDAR_DATE(1999,1,1);
#154=DATE_AND_TIME(#149,#144);
#155=DATE_AND_TIME(#150,#145);
#156=DATE_AND_TIME(#151,#146);
#157=DATE_AND_TIME(#152,#147);
#158=DATE_AND_TIME(#153,#148);
#159=APPROVAL_DATE_TIME(#154,#165);
#160=APPROVAL_DATE_TIME(#155,#166);
#161=APPROVAL_DATE_TIME(#157,#167);
#162=APPROVAL_STATUS('not_yet_approved');
#163=APPROVAL_STATUS('not_yet_approved');
#164=APPROVAL_STATUS('approved');
#165=APPROVAL(#162,'Version approval');
#166=APPROVAL(#163,'Version Security approval');
#167=APPROVAL(#164,'Definition approval');
#168=CC_DESIGN_APPROVAL(#165,(#171));
#169=CC_DESIGN_APPROVAL(#166,(#135));
#170=CC_DESIGN_APPROVAL(#167,(#129));
#171=PRODUCT_DEFINITION_FORMATION_WITH_SPECIFIED_SOURCE('A',
'First version',#203,.MADE.);
#172=PERSON_AND_ORGANIZATION_ROLE('design_owner');
#173=PERSON_AND_ORGANIZATION_ROLE('creator');
#174=PERSON_AND_ORGANIZATION_ROLE('design_supplier');
#175=PERSON_AND_ORGANIZATION_ROLE('classification_officer');
#176=PERSON_AND_ORGANIZATION_ROLE('creator');
#177=ORGANIZATION('STI','lab','lab');
#178=ORGANIZATION('STI','unknown','unknown');
#179=ORGANIZATION('STI','unknown','unknown');
#180=ORGANIZATION('STI','unknown','unknown');
#181=ORGANIZATION('STI','unknown','unknown');
#182=ORGANIZATION('STI','unknown','unknown');
#183=ORGANIZATION('STI','unknown','unknown');
#184=PERSON('1','Box','vc60',$,$,$);
#185=PERSON('2','last','first',$,$,$);
#186=PERSON('3','President','Mr.',$,$,$);
#187=PERSON_AND_ORGANIZATION(#184,#177);
#188=PERSON_AND_ORGANIZATION(#185,#178);
#189=PERSON_AND_ORGANIZATION(#186,#179);
#190=PERSON_AND_ORGANIZATION(#186,#180);
#191=PERSON_AND_ORGANIZATION(#186,#181);
#192=PERSON_AND_ORGANIZATION(#185,#182);
#193=PERSON_AND_ORGANIZATION(#186,#183);
#194=CC_DESIGN_PERSON_AND_ORGANIZATION_ASSIGNMENT(#187,#172,(#203));
#195=CC_DESIGN_PERSON_AND_ORGANIZATION_ASSIGNMENT(#188,#173,(#171));
#196=CC_DESIGN_PERSON_AND_ORGANIZATION_ASSIGNMENT(#188,#174,(#171));
#197=CC_DESIGN_PERSON_AND_ORGANIZATION_ASSIGNMENT(#191,#175,(#135));
#198=CC_DESIGN_PERSON_AND_ORGANIZATION_ASSIGNMENT(#192,#176,(#129));
#199=PRODUCT_RELATED_PRODUCT_CATEGORY('detail','detail',(#203));
#200=APPLICATION_PROTOCOL_DEFINITION('International Standard',
'config_control_design',1994,#201);
#201=APPLICATION_CONTEXT(
'configuration controlled 3d designs of mechanical parts and assemblies
');
#202=MECHANICAL_CONTEXT('3D Mechanical Parts',#201,'mechanical');
#203=PRODUCT('1','Document','Rhino converted to STEP',(#202));
#204=(
LENGTH_UNIT()
NAMED_UNIT(*)
SI_UNIT(.MILLI.,.METRE.)
);
#205=(
NAMED_UNIT(*)
PLANE_ANGLE_UNIT()
SI_UNIT($,.RADIAN.)
);
#206=DIMENSIONAL_EXPONENTS(0.,0.,0.,0.,0.,0.,0.);
#207=PLANE_ANGLE_MEASURE_WITH_UNIT(PLANE_ANGLE_MEASURE(0.01745329252),#205);
#208=(
CONVERSION_BASED_UNIT('DEGREES',#207)
NAMED_UNIT(#206)
PLANE_ANGLE_UNIT()
);
#209=(
NAMED_UNIT(*)
SI_UNIT($,.STERADIAN.)
SOLID_ANGLE_UNIT()
);
#210=UNCERTAINTY_MEASURE_WITH_UNIT(LENGTH_MEASURE(0.001),#204,
'DISTANCE_ACCURACY_VALUE',
'Maximum model space distance between geometric entities at asserted co
nnectivities');
#211=(
GEOMETRIC_REPRESENTATION_CONTEXT(3)
GLOBAL_UNCERTAINTY_ASSIGNED_CONTEXT((#210))
GLOBAL_UNIT_ASSIGNED_CONTEXT((#209,#208,#204))
REPRESENTATION_CONTEXT('ID1','3D')
);
#212=SHAPE_REPRESENTATION('Document',(#213,#214),#211);
#213=AXIS2_PLACEMENT_3D('',#219,#215,#216);
#214=AXIS2_PLACEMENT_3D('',#300,#217,#218);
#215=DIRECTION($,(0.,0.,1.));
#216=DIRECTION($,(1.,0.,0.));
#217=DIRECTION($,(0.,0.,1.));
#218=DIRECTION($,(1.,0.,0.));
#219=CARTESIAN_POINT($,(0.,0.,0.));
#220=CARTESIAN_POINT($,(63729.1020840976,-35570.1227732801,0.));
#221=CARTESIAN_POINT($,(63579.1020840976,-35420.1227732801,0.));
#222=CARTESIAN_POINT($,(63579.1020840976,-35420.1227732801,0.));
#223=CARTESIAN_POINT($,(63729.1020840976,-35420.1227732801,449.999999999993));
#224=CARTESIAN_POINT($,(63729.1020840976,-35420.1227732801,449.999999999993));
#225=CARTESIAN_POINT($,(63729.1020840976,-35570.1227732801,0.));
#226=CARTESIAN_POINT($,(63429.1020840976,-35420.1227732801,449.999999999993));
#227=CARTESIAN_POINT($,(63579.1020840976,-35420.1227732801,0.));
#228=CARTESIAN_POINT($,(63729.1020840976,-35420.1227732801,449.999999999993));
#229=CARTESIAN_POINT($,(63429.1020840976,-35420.1227732801,449.999999999993));
#230=CARTESIAN_POINT($,(63579.1020840976,-35420.1227732801,0.));
#231=CARTESIAN_POINT($,(63429.1020840976,-35570.1227732801,0.));
#232=CARTESIAN_POINT($,(63429.1020840976,-35420.1227732801,449.999999999993));
#233=CARTESIAN_POINT($,(63429.1020840976,-35570.1227732801,0.));
#234=CARTESIAN_POINT($,(63429.1020840976,-35420.1227732801,449.999999999993));
#235=CARTESIAN_POINT($,(63429.1020840976,-35720.1227732801,449.999999999993));
#236=CARTESIAN_POINT($,(63429.1020840976,-35570.1227732801,0.));
#237=CARTESIAN_POINT($,(63429.1020840976,-35720.1227732801,449.999999999993));
#238=CARTESIAN_POINT($,(63429.1020840976,-35570.1227732801,0.));
#239=CARTESIAN_POINT($,(63579.1020840976,-35720.1227732801,0.));
#240=CARTESIAN_POINT($,(63429.1020840976,-35720.1227732801,449.999999999993));
#241=CARTESIAN_POINT($,(63579.1020840976,-35720.1227732801,0.));
#242=CARTESIAN_POINT($,(63429.1020840976,-35720.1227732801,449.999999999993));
#243=CARTESIAN_POINT($,(63729.1020840976,-35720.1227732801,449.999999999993));
#244=CARTESIAN_POINT($,(63729.1020840976,-35720.1227732801,449.999999999993));
#245=CARTESIAN_POINT($,(63579.1020840976,-35720.1227732801,0.));
#246=CARTESIAN_POINT($,(63579.1020840976,-35720.1227732801,0.));
#247=CARTESIAN_POINT($,(63729.1020840976,-35570.1227732801,0.));
#248=CARTESIAN_POINT($,(63729.1020840976,-35570.1227732801,0.));
#249=CARTESIAN_POINT($,(63729.1020840976,-35720.1227732801,449.999999999993));
#250=CARTESIAN_POINT($,(63729.1020840976,-35720.1227732801,449.999999999993));
#251=CARTESIAN_POINT($,(63729.1020840976,-35420.1227732801,449.999999999993));
#252=CARTESIAN_POINT($,(63729.1020840973,-35570.1227732803,-5.48112666365341E-11));
#253=CARTESIAN_POINT($,(63729.1020840973,-35420.1227732808,450.000000000086));
#254=CARTESIAN_POINT($,(63579.1020840976,-35435.12277328,-45.0000000000148));
#255=CARTESIAN_POINT($,(63579.1020840976,-35285.1227732805,405.000000000126));
#256=CARTESIAN_POINT($,(63429.1020840976,-35420.1227732801,0.));
#257=CARTESIAN_POINT($,(63729.1020840976,-35420.1227732801,0.));
#258=CARTESIAN_POINT($,(63429.1020840976,-35420.1227732801,449.999999999993));
#259=CARTESIAN_POINT($,(63729.1020840976,-35420.1227732801,449.999999999993));
#260=CARTESIAN_POINT($,(63429.1020840978,-35570.1227732803,-7.17861325938429E-11));
#261=CARTESIAN_POINT($,(63579.1020840976,-35435.12277328,-45.0000000000163));
#262=CARTESIAN_POINT($,(63429.1020840978,-35420.1227732808,450.000000000084));
#263=CARTESIAN_POINT($,(63579.1020840976,-35285.1227732805,405.00000000014));
#264=CARTESIAN_POINT($,(63429.1020840976,-35420.1227732801,0.));
#265=CARTESIAN_POINT($,(63429.1020840976,-35420.1227732801,449.999999999993));
#266=CARTESIAN_POINT($,(63429.1020840976,-35720.1227732801,0.));
#267=CARTESIAN_POINT($,(63429.1020840976,-35720.1227732801,449.999999999993));
#268=CARTESIAN_POINT($,(63429.1020840978,-35570.1227732798,-5.48112666365341E-11));
#269=CARTESIAN_POINT($,(63429.1020840978,-35720.1227732793,450.000000000086));
#270=CARTESIAN_POINT($,(63579.1020840976,-35705.1227732801,-45.0000000000148));
#271=CARTESIAN_POINT($,(63579.1020840976,-35855.1227732797,405.000000000126));
#272=CARTESIAN_POINT($,(63429.1020840976,-35720.1227732801,0.));
#273=CARTESIAN_POINT($,(63429.1020840976,-35720.1227732801,449.999999999993));
#274=CARTESIAN_POINT($,(63729.1020840976,-35720.1227732801,0.));
#275=CARTESIAN_POINT($,(63729.1020840976,-35720.1227732801,449.999999999993));
#276=CARTESIAN_POINT($,(63729.1020840976,-35570.1227732801,6.03961325396085E-13));
#277=CARTESIAN_POINT($,(63579.1020840976,-35705.1227732801,-45.));
#278=CARTESIAN_POINT($,(63729.1020840976,-35720.1227732801,449.999999999993));
#279=CARTESIAN_POINT($,(63579.1020840976,-35855.1227732801,404.999999999993));
#280=CARTESIAN_POINT($,(63729.1020840976,-35420.1227732801,0.));
#281=CARTESIAN_POINT($,(63729.1020840976,-35720.1227732801,0.));
#282=CARTESIAN_POINT($,(63729.1020840976,-35420.1227732801,449.999999999993));
#283=CARTESIAN_POINT($,(63729.1020840976,-35720.1227732801,449.999999999993));
#284=CARTESIAN_POINT($,(63429.1020840976,-35720.1227732801,449.999999999993));
#285=CARTESIAN_POINT($,(63429.1020840976,-35420.1227732801,449.999999999993));
#286=CARTESIAN_POINT($,(63729.1020840976,-35720.1227732801,449.999999999993));
#287=CARTESIAN_POINT($,(63729.1020840976,-35420.1227732801,449.999999999993));
#288=CARTESIAN_POINT($,(63579.1020840976,-35720.1227732801,0.));
#289=CARTESIAN_POINT($,(63729.1020840976,-35570.1227732801,0.));
#290=CARTESIAN_POINT($,(63429.1020840976,-35570.1227732801,0.));
#291=CARTESIAN_POINT($,(63579.1020840976,-35420.1227732801,0.));
#292=CARTESIAN_POINT($,(63579.1020840976,-35420.1227732801,0.));
#293=CARTESIAN_POINT($,(63729.1020840976,-35420.1227732801,449.999999999993));
#294=CARTESIAN_POINT($,(63729.1020840976,-35570.1227732801,0.));
#295=CARTESIAN_POINT($,(63429.1020840976,-35420.1227732801,449.999999999993));
#296=CARTESIAN_POINT($,(63429.1020840976,-35570.1227732801,0.));
#297=CARTESIAN_POINT($,(63429.1020840976,-35720.1227732801,449.999999999993));
#298=CARTESIAN_POINT($,(63579.1020840976,-35720.1227732801,0.));
#299=CARTESIAN_POINT($,(63729.1020840976,-35720.1227732801,449.999999999993));
#300=CARTESIAN_POINT($,(0.,0.,0.));
ENDSEC;
END-ISO-10303-21;
