ISO-10303-21;
HEADER;
/* Generated by software containing ST-Developer
 * from STEP Tools, Inc. (www.steptools.com) 
 */
/* OPTION: using custom schema-name function */

FILE_DESCRIPTION(
/* description */ (''),
/* implementation_level */ '2;1');

FILE_NAME(
/* name */ '0301-3 - Rialto Tris 55.5x50',
/* time_stamp */ '2010-11-04T09:19:11+01:00',
/* author */ (''),
/* organization */ (''),
/* preprocessor_version */ 'ST-DEVELOPER v10',
/* originating_system */ '',
/* authorisation */ '');

FILE_SCHEMA (('CONFIG_CONTROL_DESIGN'));
ENDSEC;

DATA;
#10=SHAPE_REPRESENTATION_RELATIONSHIP('','',#198,#12);
#11=MANIFOLD_SOLID_BREP('brep_1',#13);
#12=ADVANCED_BREP_SHAPE_REPRESENTATION($,(#11,#204),#197);
#13=CLOSED_SHELL($,(#14,#15,#16,#17,#18,#19,#20));
#14=ADVANCED_FACE($,(#21),#93,.T.);
#15=ADVANCED_FACE($,(#22),#90,.T.);
#16=ADVANCED_FACE($,(#23),#94,.T.);
#17=ADVANCED_FACE($,(#24),#95,.T.);
#18=ADVANCED_FACE($,(#25),#91,.T.);
#19=ADVANCED_FACE($,(#26),#96,.T.);
#20=ADVANCED_FACE($,(#27),#92,.T.);
#21=FACE_OUTER_BOUND($,#28,.T.);
#22=FACE_OUTER_BOUND($,#29,.T.);
#23=FACE_OUTER_BOUND($,#30,.T.);
#24=FACE_OUTER_BOUND($,#31,.T.);
#25=FACE_OUTER_BOUND($,#32,.T.);
#26=FACE_OUTER_BOUND($,#33,.T.);
#27=FACE_OUTER_BOUND($,#34,.T.);
#28=EDGE_LOOP($,(#35,#36,#37,#38,#39));
#29=EDGE_LOOP($,(#40,#41,#42,#43));
#30=EDGE_LOOP($,(#44,#45,#46,#47,#48));
#31=EDGE_LOOP($,(#49,#50,#51,#52));
#32=EDGE_LOOP($,(#53,#54,#55,#56));
#33=EDGE_LOOP($,(#57,#58,#59,#60));
#34=EDGE_LOOP($,(#61,#62,#63,#64));
#35=ORIENTED_EDGE($,*,*,#65,.T.);
#36=ORIENTED_EDGE($,*,*,#71,.T.);
#37=ORIENTED_EDGE($,*,*,#70,.T.);
#38=ORIENTED_EDGE($,*,*,#69,.T.);
#39=ORIENTED_EDGE($,*,*,#68,.T.);
#40=ORIENTED_EDGE($,*,*,#76,.T.);
#41=ORIENTED_EDGE($,*,*,#72,.T.);
#42=ORIENTED_EDGE($,*,*,#66,.F.);
#43=ORIENTED_EDGE($,*,*,#68,.F.);
#44=ORIENTED_EDGE($,*,*,#72,.F.);
#45=ORIENTED_EDGE($,*,*,#73,.F.);
#46=ORIENTED_EDGE($,*,*,#74,.F.);
#47=ORIENTED_EDGE($,*,*,#75,.F.);
#48=ORIENTED_EDGE($,*,*,#67,.F.);
#49=ORIENTED_EDGE($,*,*,#77,.T.);
#50=ORIENTED_EDGE($,*,*,#73,.T.);
#51=ORIENTED_EDGE($,*,*,#76,.F.);
#52=ORIENTED_EDGE($,*,*,#69,.F.);
#53=ORIENTED_EDGE($,*,*,#78,.T.);
#54=ORIENTED_EDGE($,*,*,#74,.T.);
#55=ORIENTED_EDGE($,*,*,#77,.F.);
#56=ORIENTED_EDGE($,*,*,#70,.F.);
#57=ORIENTED_EDGE($,*,*,#79,.T.);
#58=ORIENTED_EDGE($,*,*,#75,.T.);
#59=ORIENTED_EDGE($,*,*,#78,.F.);
#60=ORIENTED_EDGE($,*,*,#71,.F.);
#61=ORIENTED_EDGE($,*,*,#65,.F.);
#62=ORIENTED_EDGE($,*,*,#66,.T.);
#63=ORIENTED_EDGE($,*,*,#67,.T.);
#64=ORIENTED_EDGE($,*,*,#79,.F.);
#65=EDGE_CURVE($,#80,#85,#106,.T.);
#66=EDGE_CURVE($,#80,#81,#97,.T.);
#67=EDGE_CURVE($,#81,#89,#107,.T.);
#68=EDGE_CURVE($,#82,#80,#108,.T.);
#69=EDGE_CURVE($,#83,#82,#98,.T.);
#70=EDGE_CURVE($,#84,#83,#109,.T.);
#71=EDGE_CURVE($,#85,#84,#99,.T.);
#72=EDGE_CURVE($,#86,#81,#110,.T.);
#73=EDGE_CURVE($,#87,#86,#100,.T.);
#74=EDGE_CURVE($,#88,#87,#111,.T.);
#75=EDGE_CURVE($,#89,#88,#101,.T.);
#76=EDGE_CURVE($,#82,#86,#102,.T.);
#77=EDGE_CURVE($,#83,#87,#103,.T.);
#78=EDGE_CURVE($,#84,#88,#104,.T.);
#79=EDGE_CURVE($,#85,#89,#105,.T.);
#80=VERTEX_POINT($,#328);
#81=VERTEX_POINT($,#329);
#82=VERTEX_POINT($,#330);
#83=VERTEX_POINT($,#331);
#84=VERTEX_POINT($,#332);
#85=VERTEX_POINT($,#333);
#86=VERTEX_POINT($,#334);
#87=VERTEX_POINT($,#335);
#88=VERTEX_POINT($,#336);
#89=VERTEX_POINT($,#337);
#90=(
BOUNDED_SURFACE()
B_SPLINE_SURFACE(2,1,((#279,#280),(#281,#282),(#283,#284),(#285,#286),(#287,
#288)),.UNSPECIFIED.,.F.,.F.,.F.)
B_SPLINE_SURFACE_WITH_KNOTS((3,2,3),(2,2),(-46.9269908169872,-43.,0.),(0.,
50.),.UNSPECIFIED.)
GEOMETRIC_REPRESENTATION_ITEM()
RATIONAL_B_SPLINE_SURFACE(((1.,1.),(0.707106781186548,0.707106781186548),
(1.,1.),(1.,1.),(1.,1.)))
REPRESENTATION_ITEM($)
SURFACE()
);
#91=(
BOUNDED_SURFACE()
B_SPLINE_SURFACE(2,1,((#291,#292),(#293,#294),(#295,#296),(#297,#298),(#299,
#300),(#301,#302),(#303,#304),(#305,#306),(#307,#308),(#309,#310),(#311,
#312)),.UNSPECIFIED.,.F.,.F.,.F.)
B_SPLINE_SURFACE_WITH_KNOTS((3,2,2,2,2,3),(2,2),(1.,44.,47.9269908169872,
98.4269908169872,102.353981633974,145.353981633974),(0.,50.),.UNSPECIFIED.)
GEOMETRIC_REPRESENTATION_ITEM()
RATIONAL_B_SPLINE_SURFACE(((1.,1.),(1.,1.),(1.,1.),(0.707106781186548,0.707106781186548),
(1.,1.),(1.,1.),(1.,1.),(0.707106781186548,0.707106781186548),(1.,1.),(1.,
1.),(1.,1.)))
REPRESENTATION_ITEM($)
SURFACE()
);
#92=(
BOUNDED_SURFACE()
B_SPLINE_SURFACE(2,1,((#314,#315),(#316,#317),(#318,#319),(#320,#321),(#322,
#323),(#324,#325),(#326,#327)),.UNSPECIFIED.,.F.,.F.,.F.)
B_SPLINE_SURFACE_WITH_KNOTS((3,2,2,3),(2,2),(146.353981633974,189.353981633974,
193.280972450962,243.780972450962),(0.,50.),.UNSPECIFIED.)
GEOMETRIC_REPRESENTATION_ITEM()
RATIONAL_B_SPLINE_SURFACE(((1.,1.),(1.,1.),(1.,1.),(0.707106781186548,0.707106781186548),
(1.,1.),(1.,1.),(1.,1.)))
REPRESENTATION_ITEM($)
SURFACE()
);
#93=PLANE($,#200);
#94=PLANE($,#201);
#95=PLANE($,#202);
#96=PLANE($,#203);
#97=B_SPLINE_CURVE_WITH_KNOTS($,1,(#221,#222),.UNSPECIFIED.,.F.,.F.,(2,2),
(0.,50.),.UNSPECIFIED.);
#98=B_SPLINE_CURVE_WITH_KNOTS($,1,(#235,#236),.UNSPECIFIED.,.F.,.F.,(2,2),
(-1.,0.),.UNSPECIFIED.);
#99=B_SPLINE_CURVE_WITH_KNOTS($,1,(#248,#249),.UNSPECIFIED.,.F.,.F.,(2,2),
(-146.353981633974,-145.353981633974),.UNSPECIFIED.);
#100=B_SPLINE_CURVE_WITH_KNOTS($,1,(#255,#256),.UNSPECIFIED.,.F.,.F.,(2,
2),(-1.,0.),.UNSPECIFIED.);
#101=B_SPLINE_CURVE_WITH_KNOTS($,1,(#268,#269),.UNSPECIFIED.,.F.,.F.,(2,
2),(-146.353981633974,-145.353981633974),.UNSPECIFIED.);
#102=B_SPLINE_CURVE_WITH_KNOTS($,1,(#270,#271),.UNSPECIFIED.,.F.,.F.,(2,
2),(0.,50.),.UNSPECIFIED.);
#103=B_SPLINE_CURVE_WITH_KNOTS($,1,(#272,#273),.UNSPECIFIED.,.F.,.F.,(2,
2),(0.,50.),.UNSPECIFIED.);
#104=B_SPLINE_CURVE_WITH_KNOTS($,1,(#274,#275),.UNSPECIFIED.,.F.,.F.,(2,
2),(0.,50.),.UNSPECIFIED.);
#105=B_SPLINE_CURVE_WITH_KNOTS($,1,(#276,#277),.UNSPECIFIED.,.F.,.F.,(2,
2),(0.,50.),.UNSPECIFIED.);
#106=(
BOUNDED_CURVE()
B_SPLINE_CURVE(2,(#214,#215,#216,#217,#218,#219,#220),.UNSPECIFIED.,.F.,
.F.)
B_SPLINE_CURVE_WITH_KNOTS((3,2,2,3),(-243.780972450962,-193.280972450962,
-189.353981633974,-146.353981633974),.UNSPECIFIED.)
CURVE()
GEOMETRIC_REPRESENTATION_ITEM()
RATIONAL_B_SPLINE_CURVE((1.,1.,1.,0.707106781186548,1.,1.,1.))
REPRESENTATION_ITEM($)
);
#107=(
BOUNDED_CURVE()
B_SPLINE_CURVE(2,(#223,#224,#225,#226,#227,#228,#229),.UNSPECIFIED.,.F.,
.F.)
B_SPLINE_CURVE_WITH_KNOTS((3,2,2,3),(-243.780972450962,-193.280972450962,
-189.353981633974,-146.353981633974),.UNSPECIFIED.)
CURVE()
GEOMETRIC_REPRESENTATION_ITEM()
RATIONAL_B_SPLINE_CURVE((1.,1.,1.,0.707106781186548,1.,1.,1.))
REPRESENTATION_ITEM($)
);
#108=(
BOUNDED_CURVE()
B_SPLINE_CURVE(2,(#230,#231,#232,#233,#234),.UNSPECIFIED.,.F.,.F.)
B_SPLINE_CURVE_WITH_KNOTS((3,2,3),(0.,43.,46.9269908169872),.UNSPECIFIED.)
CURVE()
GEOMETRIC_REPRESENTATION_ITEM()
RATIONAL_B_SPLINE_CURVE((1.,1.,1.,0.707106781186548,1.))
REPRESENTATION_ITEM($)
);
#109=(
BOUNDED_CURVE()
B_SPLINE_CURVE(2,(#237,#238,#239,#240,#241,#242,#243,#244,#245,#246,#247),
.UNSPECIFIED.,.F.,.F.)
B_SPLINE_CURVE_WITH_KNOTS((3,2,2,2,2,3),(-145.353981633974,-102.353981633974,
-98.4269908169872,-47.9269908169872,-44.,-1.),.UNSPECIFIED.)
CURVE()
GEOMETRIC_REPRESENTATION_ITEM()
RATIONAL_B_SPLINE_CURVE((1.,1.,1.,0.707106781186548,1.,1.,1.,0.707106781186548,
1.,1.,1.))
REPRESENTATION_ITEM($)
);
#110=(
BOUNDED_CURVE()
B_SPLINE_CURVE(2,(#250,#251,#252,#253,#254),.UNSPECIFIED.,.F.,.F.)
B_SPLINE_CURVE_WITH_KNOTS((3,2,3),(0.,43.,46.9269908169872),.UNSPECIFIED.)
CURVE()
GEOMETRIC_REPRESENTATION_ITEM()
RATIONAL_B_SPLINE_CURVE((1.,1.,1.,0.707106781186548,1.))
REPRESENTATION_ITEM($)
);
#111=(
BOUNDED_CURVE()
B_SPLINE_CURVE(2,(#257,#258,#259,#260,#261,#262,#263,#264,#265,#266,#267),
.UNSPECIFIED.,.F.,.F.)
B_SPLINE_CURVE_WITH_KNOTS((3,2,2,2,2,3),(-145.353981633974,-102.353981633974,
-98.4269908169872,-47.9269908169872,-44.,-1.),.UNSPECIFIED.)
CURVE()
GEOMETRIC_REPRESENTATION_ITEM()
RATIONAL_B_SPLINE_CURVE((1.,1.,1.,0.707106781186548,1.,1.,1.,0.707106781186548,
1.,1.,1.))
REPRESENTATION_ITEM($)
);
#112=SHAPE_DEFINITION_REPRESENTATION(#113,#198);
#113=PRODUCT_DEFINITION_SHAPE('Document','',#115);
#114=DESIGN_CONTEXT('3D Mechanical Parts',#187,'design');
#115=PRODUCT_DEFINITION('A','First version',#157,#114);
#116=DATE_TIME_ROLE('classification_date');
#117=DATE_TIME_ROLE('creation_date');
#118=CC_DESIGN_DATE_AND_TIME_ASSIGNMENT(#142,#116,(#121));
#119=CC_DESIGN_DATE_AND_TIME_ASSIGNMENT(#144,#117,(#115));
#120=SECURITY_CLASSIFICATION_LEVEL('unclassified');
#121=SECURITY_CLASSIFICATION('A','Security for version',#120);
#122=CC_DESIGN_SECURITY_CLASSIFICATION(#121,(#157));
#123=APPROVAL_ROLE('Version approval');
#124=APPROVAL_ROLE('Version Security approval');
#125=APPROVAL_ROLE('Definition approval');
#126=APPROVAL_PERSON_ORGANIZATION(#175,#151,#123);
#127=APPROVAL_PERSON_ORGANIZATION(#176,#152,#124);
#128=APPROVAL_PERSON_ORGANIZATION(#179,#153,#125);
#129=COORDINATED_UNIVERSAL_TIME_OFFSET(5,0,.BEHIND.);
#130=LOCAL_TIME(0,0,0.,#129);
#131=LOCAL_TIME(0,0,0.,#129);
#132=LOCAL_TIME(0,0,0.,#129);
#133=LOCAL_TIME(0,0,0.,#129);
#134=LOCAL_TIME(0,0,0.,#129);
#135=CALENDAR_DATE(1999,1,1);
#136=CALENDAR_DATE(1999,1,1);
#137=CALENDAR_DATE(1999,1,1);
#138=CALENDAR_DATE(1999,1,1);
#139=CALENDAR_DATE(1999,1,1);
#140=DATE_AND_TIME(#135,#130);
#141=DATE_AND_TIME(#136,#131);
#142=DATE_AND_TIME(#137,#132);
#143=DATE_AND_TIME(#138,#133);
#144=DATE_AND_TIME(#139,#134);
#145=APPROVAL_DATE_TIME(#140,#151);
#146=APPROVAL_DATE_TIME(#141,#152);
#147=APPROVAL_DATE_TIME(#143,#153);
#148=APPROVAL_STATUS('not_yet_approved');
#149=APPROVAL_STATUS('not_yet_approved');
#150=APPROVAL_STATUS('approved');
#151=APPROVAL(#148,'Version approval');
#152=APPROVAL(#149,'Version Security approval');
#153=APPROVAL(#150,'Definition approval');
#154=CC_DESIGN_APPROVAL(#151,(#157));
#155=CC_DESIGN_APPROVAL(#152,(#121));
#156=CC_DESIGN_APPROVAL(#153,(#115));
#157=PRODUCT_DEFINITION_FORMATION_WITH_SPECIFIED_SOURCE('A',
'First version',#189,.MADE.);
#158=PERSON_AND_ORGANIZATION_ROLE('design_owner');
#159=PERSON_AND_ORGANIZATION_ROLE('creator');
#160=PERSON_AND_ORGANIZATION_ROLE('design_supplier');
#161=PERSON_AND_ORGANIZATION_ROLE('classification_officer');
#162=PERSON_AND_ORGANIZATION_ROLE('creator');
#163=ORGANIZATION('STI','lab','lab');
#164=ORGANIZATION('STI','unknown','unknown');
#165=ORGANIZATION('STI','unknown','unknown');
#166=ORGANIZATION('STI','unknown','unknown');
#167=ORGANIZATION('STI','unknown','unknown');
#168=ORGANIZATION('STI','unknown','unknown');
#169=ORGANIZATION('STI','unknown','unknown');
#170=PERSON('1','Box','vc60',$,$,$);
#171=PERSON('2','last','first',$,$,$);
#172=PERSON('3','President','Mr.',$,$,$);
#173=PERSON_AND_ORGANIZATION(#170,#163);
#174=PERSON_AND_ORGANIZATION(#171,#164);
#175=PERSON_AND_ORGANIZATION(#172,#165);
#176=PERSON_AND_ORGANIZATION(#172,#166);
#177=PERSON_AND_ORGANIZATION(#172,#167);
#178=PERSON_AND_ORGANIZATION(#171,#168);
#179=PERSON_AND_ORGANIZATION(#172,#169);
#180=CC_DESIGN_PERSON_AND_ORGANIZATION_ASSIGNMENT(#173,#158,(#189));
#181=CC_DESIGN_PERSON_AND_ORGANIZATION_ASSIGNMENT(#174,#159,(#157));
#182=CC_DESIGN_PERSON_AND_ORGANIZATION_ASSIGNMENT(#174,#160,(#157));
#183=CC_DESIGN_PERSON_AND_ORGANIZATION_ASSIGNMENT(#177,#161,(#121));
#184=CC_DESIGN_PERSON_AND_ORGANIZATION_ASSIGNMENT(#178,#162,(#115));
#185=PRODUCT_RELATED_PRODUCT_CATEGORY('detail','detail',(#189));
#186=APPLICATION_PROTOCOL_DEFINITION('International Standard',
'config_control_design',1994,#187);
#187=APPLICATION_CONTEXT(
'configuration controlled 3d designs of mechanical parts and assemblies
');
#188=MECHANICAL_CONTEXT('3D Mechanical Parts',#187,'mechanical');
#189=PRODUCT('1','Document','Rhino converted to STEP',(#188));
#190=(
LENGTH_UNIT()
NAMED_UNIT(*)
SI_UNIT(.CENTI.,.METRE.)
);
#191=(
NAMED_UNIT(*)
PLANE_ANGLE_UNIT()
SI_UNIT($,.RADIAN.)
);
#192=DIMENSIONAL_EXPONENTS(0.,0.,0.,0.,0.,0.,0.);
#193=PLANE_ANGLE_MEASURE_WITH_UNIT(PLANE_ANGLE_MEASURE(0.01745329252),#191);
#194=(
CONVERSION_BASED_UNIT('DEGREES',#193)
NAMED_UNIT(#192)
PLANE_ANGLE_UNIT()
);
#195=(
NAMED_UNIT(*)
SI_UNIT($,.STERADIAN.)
SOLID_ANGLE_UNIT()
);
#196=UNCERTAINTY_MEASURE_WITH_UNIT(LENGTH_MEASURE(0.01),#190,
'DISTANCE_ACCURACY_VALUE',
'Maximum model space distance between geometric entities at asserted co
nnectivities');
#197=(
GEOMETRIC_REPRESENTATION_CONTEXT(3)
GLOBAL_UNCERTAINTY_ASSIGNED_CONTEXT((#196))
GLOBAL_UNIT_ASSIGNED_CONTEXT((#195,#194,#190))
REPRESENTATION_CONTEXT('ID1','3D')
);
#198=SHAPE_REPRESENTATION('Document',(#199,#204),#197);
#199=AXIS2_PLACEMENT_3D('',#213,#205,#206);
#200=AXIS2_PLACEMENT_3D($,#278,#207,$);
#201=AXIS2_PLACEMENT_3D($,#289,#208,$);
#202=AXIS2_PLACEMENT_3D($,#290,#209,$);
#203=AXIS2_PLACEMENT_3D($,#313,#210,$);
#204=AXIS2_PLACEMENT_3D('',#338,#211,#212);
#205=DIRECTION($,(0.,0.,1.));
#206=DIRECTION($,(1.,0.,0.));
#207=DIRECTION($,(0.,-1.,0.));
#208=DIRECTION($,(0.,1.,0.));
#209=DIRECTION($,(0.,0.,-1.));
#210=DIRECTION($,(0.,0.,-1.));
#211=DIRECTION($,(0.,0.,1.));
#212=DIRECTION($,(1.,0.,0.));
#213=CARTESIAN_POINT($,(0.,0.,0.));
#214=CARTESIAN_POINT($,(2.5,0.,44.5));
#215=CARTESIAN_POINT($,(27.75,0.,44.5));
#216=CARTESIAN_POINT($,(53.,0.,44.5));
#217=CARTESIAN_POINT($,(54.5,0.,44.5));
#218=CARTESIAN_POINT($,(54.5,0.,43.));
#219=CARTESIAN_POINT($,(54.5,0.,21.5));
#220=CARTESIAN_POINT($,(54.5,0.,0.));
#221=CARTESIAN_POINT($,(2.5,0.,44.5));
#222=CARTESIAN_POINT($,(2.5,50.,44.5));
#223=CARTESIAN_POINT($,(2.5,50.,44.5));
#224=CARTESIAN_POINT($,(27.75,50.,44.5));
#225=CARTESIAN_POINT($,(53.,50.,44.5));
#226=CARTESIAN_POINT($,(54.5,50.,44.5));
#227=CARTESIAN_POINT($,(54.5,50.,43.));
#228=CARTESIAN_POINT($,(54.5,50.,21.5));
#229=CARTESIAN_POINT($,(54.5,50.,0.));
#230=CARTESIAN_POINT($,(1.,0.,0.));
#231=CARTESIAN_POINT($,(1.,0.,21.5));
#232=CARTESIAN_POINT($,(1.,0.,43.));
#233=CARTESIAN_POINT($,(1.,0.,44.5));
#234=CARTESIAN_POINT($,(2.5,0.,44.5));
#235=CARTESIAN_POINT($,(0.,0.,0.));
#236=CARTESIAN_POINT($,(1.,0.,0.));
#237=CARTESIAN_POINT($,(55.5,0.,0.));
#238=CARTESIAN_POINT($,(55.5,0.,21.5));
#239=CARTESIAN_POINT($,(55.5,0.,43.));
#240=CARTESIAN_POINT($,(55.5,0.,45.5));
#241=CARTESIAN_POINT($,(53.,0.,45.5));
#242=CARTESIAN_POINT($,(27.75,0.,45.5));
#243=CARTESIAN_POINT($,(2.5,0.,45.5));
#244=CARTESIAN_POINT($,(0.,0.,45.5));
#245=CARTESIAN_POINT($,(0.,0.,43.));
#246=CARTESIAN_POINT($,(0.,0.,21.5));
#247=CARTESIAN_POINT($,(0.,0.,0.));
#248=CARTESIAN_POINT($,(54.5,0.,0.));
#249=CARTESIAN_POINT($,(55.5,0.,0.));
#250=CARTESIAN_POINT($,(1.,50.,0.));
#251=CARTESIAN_POINT($,(1.,50.,21.5));
#252=CARTESIAN_POINT($,(1.,50.,43.));
#253=CARTESIAN_POINT($,(1.,50.,44.5));
#254=CARTESIAN_POINT($,(2.5,50.,44.5));
#255=CARTESIAN_POINT($,(0.,50.,0.));
#256=CARTESIAN_POINT($,(1.,50.,0.));
#257=CARTESIAN_POINT($,(55.5,50.,0.));
#258=CARTESIAN_POINT($,(55.5,50.,21.5));
#259=CARTESIAN_POINT($,(55.5,50.,43.));
#260=CARTESIAN_POINT($,(55.5,50.,45.5));
#261=CARTESIAN_POINT($,(53.,50.,45.5));
#262=CARTESIAN_POINT($,(27.75,50.,45.5));
#263=CARTESIAN_POINT($,(2.5,50.,45.5));
#264=CARTESIAN_POINT($,(0.,50.,45.5));
#265=CARTESIAN_POINT($,(0.,50.,43.));
#266=CARTESIAN_POINT($,(0.,50.,21.5));
#267=CARTESIAN_POINT($,(0.,50.,0.));
#268=CARTESIAN_POINT($,(54.5,50.,0.));
#269=CARTESIAN_POINT($,(55.5,50.,0.));
#270=CARTESIAN_POINT($,(1.,0.,0.));
#271=CARTESIAN_POINT($,(1.,50.,0.));
#272=CARTESIAN_POINT($,(0.,0.,0.));
#273=CARTESIAN_POINT($,(0.,50.,0.));
#274=CARTESIAN_POINT($,(55.5,0.,0.));
#275=CARTESIAN_POINT($,(55.5,50.,0.));
#276=CARTESIAN_POINT($,(54.5,0.,0.));
#277=CARTESIAN_POINT($,(54.5,50.,0.));
#278=CARTESIAN_POINT($,(-3.5527136788005E-15,0.,0.));
#279=CARTESIAN_POINT($,(2.5,0.,44.5));
#280=CARTESIAN_POINT($,(2.5,50.,44.5));
#281=CARTESIAN_POINT($,(1.,0.,44.5));
#282=CARTESIAN_POINT($,(1.,50.,44.5));
#283=CARTESIAN_POINT($,(1.,0.,43.));
#284=CARTESIAN_POINT($,(1.,50.,43.));
#285=CARTESIAN_POINT($,(1.,0.,21.5));
#286=CARTESIAN_POINT($,(1.,50.,21.5));
#287=CARTESIAN_POINT($,(1.,0.,0.));
#288=CARTESIAN_POINT($,(1.,50.,0.));
#289=CARTESIAN_POINT($,(-3.5527136788005E-15,50.,0.));
#290=CARTESIAN_POINT($,(1.,0.,0.));
#291=CARTESIAN_POINT($,(0.,0.,0.));
#292=CARTESIAN_POINT($,(0.,50.,0.));
#293=CARTESIAN_POINT($,(0.,0.,21.5));
#294=CARTESIAN_POINT($,(0.,50.,21.5));
#295=CARTESIAN_POINT($,(0.,0.,43.));
#296=CARTESIAN_POINT($,(0.,50.,43.));
#297=CARTESIAN_POINT($,(0.,0.,45.5));
#298=CARTESIAN_POINT($,(0.,50.,45.5));
#299=CARTESIAN_POINT($,(2.5,0.,45.5));
#300=CARTESIAN_POINT($,(2.5,50.,45.5));
#301=CARTESIAN_POINT($,(27.75,0.,45.5));
#302=CARTESIAN_POINT($,(27.75,50.,45.5));
#303=CARTESIAN_POINT($,(53.,0.,45.5));
#304=CARTESIAN_POINT($,(53.,50.,45.5));
#305=CARTESIAN_POINT($,(55.5,0.,45.5));
#306=CARTESIAN_POINT($,(55.5,50.,45.5));
#307=CARTESIAN_POINT($,(55.5,0.,43.));
#308=CARTESIAN_POINT($,(55.5,50.,43.));
#309=CARTESIAN_POINT($,(55.5,0.,21.5));
#310=CARTESIAN_POINT($,(55.5,50.,21.5));
#311=CARTESIAN_POINT($,(55.5,0.,0.));
#312=CARTESIAN_POINT($,(55.5,50.,0.));
#313=CARTESIAN_POINT($,(55.5,0.,0.));
#314=CARTESIAN_POINT($,(54.5,0.,0.));
#315=CARTESIAN_POINT($,(54.5,50.,0.));
#316=CARTESIAN_POINT($,(54.5,0.,21.5));
#317=CARTESIAN_POINT($,(54.5,50.,21.5));
#318=CARTESIAN_POINT($,(54.5,0.,43.));
#319=CARTESIAN_POINT($,(54.5,50.,43.));
#320=CARTESIAN_POINT($,(54.5,0.,44.5));
#321=CARTESIAN_POINT($,(54.5,50.,44.5));
#322=CARTESIAN_POINT($,(53.,0.,44.5));
#323=CARTESIAN_POINT($,(53.,50.,44.5));
#324=CARTESIAN_POINT($,(27.75,0.,44.5));
#325=CARTESIAN_POINT($,(27.75,50.,44.5));
#326=CARTESIAN_POINT($,(2.5,0.,44.5));
#327=CARTESIAN_POINT($,(2.5,50.,44.5));
#328=CARTESIAN_POINT($,(2.5,0.,44.5));
#329=CARTESIAN_POINT($,(2.5,50.,44.5));
#330=CARTESIAN_POINT($,(1.,0.,0.));
#331=CARTESIAN_POINT($,(0.,0.,0.));
#332=CARTESIAN_POINT($,(55.5,0.,0.));
#333=CARTESIAN_POINT($,(54.5,0.,0.));
#334=CARTESIAN_POINT($,(1.,50.,0.));
#335=CARTESIAN_POINT($,(0.,50.,0.));
#336=CARTESIAN_POINT($,(55.5,50.,0.));
#337=CARTESIAN_POINT($,(54.5,50.,0.));
#338=CARTESIAN_POINT($,(0.,0.,0.));
ENDSEC;
END-ISO-10303-21;
