ISO-10303-21;
HEADER;
/* Generated by software containing ST-Developer
 * from STEP Tools, Inc. (www.steptools.com) 
 */
/* OPTION: using custom schema-name function */

FILE_DESCRIPTION(
/* description */ (''),
/* implementation_level */ '2;1');

FILE_NAME(
/* name */ '0301-2 - Rialto Tris 47.5x45',
/* time_stamp */ '2010-11-04T09:18:22+01:00',
/* author */ (''),
/* organization */ (''),
/* preprocessor_version */ 'ST-DEVELOPER v10',
/* originating_system */ '',
/* authorisation */ '');

FILE_SCHEMA (('CONFIG_CONTROL_DESIGN'));
ENDSEC;

DATA;
#10=SHAPE_REPRESENTATION_RELATIONSHIP('','',#180,#12);
#11=MANIFOLD_SOLID_BREP('brep_1',#13);
#12=ADVANCED_BREP_SHAPE_REPRESENTATION($,(#11,#186),#179);
#13=CLOSED_SHELL($,(#14,#15,#16,#17,#18,#19));
#14=ADVANCED_FACE($,(#20),#78,.T.);
#15=ADVANCED_FACE($,(#21),#76,.T.);
#16=ADVANCED_FACE($,(#22),#79,.T.);
#17=ADVANCED_FACE($,(#23),#80,.T.);
#18=ADVANCED_FACE($,(#24),#77,.T.);
#19=ADVANCED_FACE($,(#25),#81,.T.);
#20=FACE_OUTER_BOUND($,#26,.T.);
#21=FACE_OUTER_BOUND($,#27,.T.);
#22=FACE_OUTER_BOUND($,#28,.T.);
#23=FACE_OUTER_BOUND($,#29,.T.);
#24=FACE_OUTER_BOUND($,#30,.T.);
#25=FACE_OUTER_BOUND($,#31,.T.);
#26=EDGE_LOOP($,(#32,#33,#34,#35));
#27=EDGE_LOOP($,(#36,#37,#38,#39));
#28=EDGE_LOOP($,(#40,#41,#42,#43));
#29=EDGE_LOOP($,(#44,#45,#46,#47));
#30=EDGE_LOOP($,(#48,#49,#50,#51));
#31=EDGE_LOOP($,(#52,#53,#54,#55));
#32=ORIENTED_EDGE($,*,*,#56,.T.);
#33=ORIENTED_EDGE($,*,*,#61,.T.);
#34=ORIENTED_EDGE($,*,*,#60,.T.);
#35=ORIENTED_EDGE($,*,*,#59,.T.);
#36=ORIENTED_EDGE($,*,*,#65,.T.);
#37=ORIENTED_EDGE($,*,*,#62,.T.);
#38=ORIENTED_EDGE($,*,*,#57,.F.);
#39=ORIENTED_EDGE($,*,*,#59,.F.);
#40=ORIENTED_EDGE($,*,*,#62,.F.);
#41=ORIENTED_EDGE($,*,*,#63,.F.);
#42=ORIENTED_EDGE($,*,*,#64,.F.);
#43=ORIENTED_EDGE($,*,*,#58,.F.);
#44=ORIENTED_EDGE($,*,*,#66,.T.);
#45=ORIENTED_EDGE($,*,*,#63,.T.);
#46=ORIENTED_EDGE($,*,*,#65,.F.);
#47=ORIENTED_EDGE($,*,*,#60,.F.);
#48=ORIENTED_EDGE($,*,*,#67,.T.);
#49=ORIENTED_EDGE($,*,*,#64,.T.);
#50=ORIENTED_EDGE($,*,*,#66,.F.);
#51=ORIENTED_EDGE($,*,*,#61,.F.);
#52=ORIENTED_EDGE($,*,*,#56,.F.);
#53=ORIENTED_EDGE($,*,*,#57,.T.);
#54=ORIENTED_EDGE($,*,*,#58,.T.);
#55=ORIENTED_EDGE($,*,*,#67,.F.);
#56=EDGE_CURVE($,#68,#72,#86,.T.);
#57=EDGE_CURVE($,#68,#69,#87,.T.);
#58=EDGE_CURVE($,#69,#75,#88,.T.);
#59=EDGE_CURVE($,#70,#68,#82,.T.);
#60=EDGE_CURVE($,#71,#70,#89,.T.);
#61=EDGE_CURVE($,#72,#71,#83,.T.);
#62=EDGE_CURVE($,#73,#69,#84,.T.);
#63=EDGE_CURVE($,#74,#73,#90,.T.);
#64=EDGE_CURVE($,#75,#74,#85,.T.);
#65=EDGE_CURVE($,#70,#73,#91,.T.);
#66=EDGE_CURVE($,#71,#74,#92,.T.);
#67=EDGE_CURVE($,#72,#75,#93,.T.);
#68=VERTEX_POINT($,#304);
#69=VERTEX_POINT($,#305);
#70=VERTEX_POINT($,#306);
#71=VERTEX_POINT($,#307);
#72=VERTEX_POINT($,#308);
#73=VERTEX_POINT($,#309);
#74=VERTEX_POINT($,#310);
#75=VERTEX_POINT($,#311);
#76=(
BOUNDED_SURFACE()
B_SPLINE_SURFACE(2,1,((#257,#258),(#259,#260),(#261,#262),(#263,#264),(#265,
#266),(#267,#268),(#269,#270),(#271,#272),(#273,#274),(#275,#276),(#277,
#278)),.UNSPECIFIED.,.F.,.F.,.F.)
B_SPLINE_SURFACE_WITH_KNOTS((3,2,2,2,2,3),(2,2),(-258.707963267949,-219.707963267949,
-215.780972450962,-173.280972450962,-169.353981633974,-130.353981633974),
(0.,45.),.UNSPECIFIED.)
GEOMETRIC_REPRESENTATION_ITEM()
RATIONAL_B_SPLINE_SURFACE(((1.,1.),(1.,1.),(1.,1.),(0.707106781186548,0.707106781186548),
(1.,1.),(1.,1.),(1.,1.),(0.707106781186548,0.707106781186548),(1.,1.),(1.,
1.),(1.,1.)))
REPRESENTATION_ITEM($)
SURFACE()
);
#77=(
BOUNDED_SURFACE()
B_SPLINE_SURFACE(2,1,((#281,#282),(#283,#284),(#285,#286),(#287,#288),(#289,
#290),(#291,#292),(#293,#294),(#295,#296),(#297,#298),(#299,#300),(#301,
#302)),.UNSPECIFIED.,.F.,.F.,.F.)
B_SPLINE_SURFACE_WITH_KNOTS((3,2,2,2,2,3),(2,2),(-129.353981633974,-90.3539816339745,
-86.4269908169872,-43.9269908169872,-40.,-1.),(0.,45.),.UNSPECIFIED.)
GEOMETRIC_REPRESENTATION_ITEM()
RATIONAL_B_SPLINE_SURFACE(((1.,1.),(1.,1.),(1.,1.),(0.707106781186548,0.707106781186548),
(1.,1.),(1.,1.),(1.,1.),(0.707106781186548,0.707106781186548),(1.,1.),(1.,
1.),(1.,1.)))
REPRESENTATION_ITEM($)
SURFACE()
);
#78=PLANE($,#182);
#79=PLANE($,#183);
#80=PLANE($,#184);
#81=PLANE($,#185);
#82=(
BOUNDED_CURVE()
B_SPLINE_CURVE(2,(#202,#203,#204,#205,#206,#207,#208,#209,#210,#211,#212),
.UNSPECIFIED.,.F.,.F.)
B_SPLINE_CURVE_WITH_KNOTS((3,2,2,2,2,3),(130.353981633974,169.353981633974,
173.280972450962,215.780972450962,219.707963267949,258.707963267949),.UNSPECIFIED.)
CURVE()
GEOMETRIC_REPRESENTATION_ITEM()
RATIONAL_B_SPLINE_CURVE((1.,1.,1.,0.707106781186548,1.,1.,1.,0.707106781186548,
1.,1.,1.))
REPRESENTATION_ITEM($)
);
#83=(
BOUNDED_CURVE()
B_SPLINE_CURVE(2,(#215,#216,#217,#218,#219,#220,#221,#222,#223,#224,#225),
.UNSPECIFIED.,.F.,.F.)
B_SPLINE_CURVE_WITH_KNOTS((3,2,2,2,2,3),(1.,40.,43.9269908169872,86.4269908169872,
90.3539816339745,129.353981633974),.UNSPECIFIED.)
CURVE()
GEOMETRIC_REPRESENTATION_ITEM()
RATIONAL_B_SPLINE_CURVE((1.,1.,1.,0.707106781186548,1.,1.,1.,0.707106781186548,
1.,1.,1.))
REPRESENTATION_ITEM($)
);
#84=(
BOUNDED_CURVE()
B_SPLINE_CURVE(2,(#226,#227,#228,#229,#230,#231,#232,#233,#234,#235,#236),
.UNSPECIFIED.,.F.,.F.)
B_SPLINE_CURVE_WITH_KNOTS((3,2,2,2,2,3),(130.353981633974,169.353981633974,
173.280972450962,215.780972450962,219.707963267949,258.707963267949),.UNSPECIFIED.)
CURVE()
GEOMETRIC_REPRESENTATION_ITEM()
RATIONAL_B_SPLINE_CURVE((1.,1.,1.,0.707106781186548,1.,1.,1.,0.707106781186548,
1.,1.,1.))
REPRESENTATION_ITEM($)
);
#85=(
BOUNDED_CURVE()
B_SPLINE_CURVE(2,(#239,#240,#241,#242,#243,#244,#245,#246,#247,#248,#249),
.UNSPECIFIED.,.F.,.F.)
B_SPLINE_CURVE_WITH_KNOTS((3,2,2,2,2,3),(1.,40.,43.9269908169872,86.4269908169872,
90.3539816339745,129.353981633974),.UNSPECIFIED.)
CURVE()
GEOMETRIC_REPRESENTATION_ITEM()
RATIONAL_B_SPLINE_CURVE((1.,1.,1.,0.707106781186548,1.,1.,1.,0.707106781186548,
1.,1.,1.))
REPRESENTATION_ITEM($)
);
#86=B_SPLINE_CURVE_WITH_KNOTS($,1,(#196,#197),.UNSPECIFIED.,.F.,.F.,(2,2),
(0.,1.),.UNSPECIFIED.);
#87=B_SPLINE_CURVE_WITH_KNOTS($,1,(#198,#199),.UNSPECIFIED.,.F.,.F.,(2,2),
(0.,45.),.UNSPECIFIED.);
#88=B_SPLINE_CURVE_WITH_KNOTS($,1,(#200,#201),.UNSPECIFIED.,.F.,.F.,(2,2),
(0.,1.),.UNSPECIFIED.);
#89=B_SPLINE_CURVE_WITH_KNOTS($,1,(#213,#214),.UNSPECIFIED.,.F.,.F.,(2,2),
(129.353981633974,130.353981633974),.UNSPECIFIED.);
#90=B_SPLINE_CURVE_WITH_KNOTS($,1,(#237,#238),.UNSPECIFIED.,.F.,.F.,(2,2),
(129.353981633974,130.353981633974),.UNSPECIFIED.);
#91=B_SPLINE_CURVE_WITH_KNOTS($,1,(#250,#251),.UNSPECIFIED.,.F.,.F.,(2,2),
(0.,45.),.UNSPECIFIED.);
#92=B_SPLINE_CURVE_WITH_KNOTS($,1,(#252,#253),.UNSPECIFIED.,.F.,.F.,(2,2),
(0.,45.),.UNSPECIFIED.);
#93=B_SPLINE_CURVE_WITH_KNOTS($,1,(#254,#255),.UNSPECIFIED.,.F.,.F.,(2,2),
(0.,45.),.UNSPECIFIED.);
#94=SHAPE_DEFINITION_REPRESENTATION(#95,#180);
#95=PRODUCT_DEFINITION_SHAPE('Document','',#97);
#96=DESIGN_CONTEXT('3D Mechanical Parts',#169,'design');
#97=PRODUCT_DEFINITION('A','First version',#139,#96);
#98=DATE_TIME_ROLE('classification_date');
#99=DATE_TIME_ROLE('creation_date');
#100=CC_DESIGN_DATE_AND_TIME_ASSIGNMENT(#124,#98,(#103));
#101=CC_DESIGN_DATE_AND_TIME_ASSIGNMENT(#126,#99,(#97));
#102=SECURITY_CLASSIFICATION_LEVEL('unclassified');
#103=SECURITY_CLASSIFICATION('A','Security for version',#102);
#104=CC_DESIGN_SECURITY_CLASSIFICATION(#103,(#139));
#105=APPROVAL_ROLE('Version approval');
#106=APPROVAL_ROLE('Version Security approval');
#107=APPROVAL_ROLE('Definition approval');
#108=APPROVAL_PERSON_ORGANIZATION(#157,#133,#105);
#109=APPROVAL_PERSON_ORGANIZATION(#158,#134,#106);
#110=APPROVAL_PERSON_ORGANIZATION(#161,#135,#107);
#111=COORDINATED_UNIVERSAL_TIME_OFFSET(5,0,.BEHIND.);
#112=LOCAL_TIME(0,0,0.,#111);
#113=LOCAL_TIME(0,0,0.,#111);
#114=LOCAL_TIME(0,0,0.,#111);
#115=LOCAL_TIME(0,0,0.,#111);
#116=LOCAL_TIME(0,0,0.,#111);
#117=CALENDAR_DATE(1999,1,1);
#118=CALENDAR_DATE(1999,1,1);
#119=CALENDAR_DATE(1999,1,1);
#120=CALENDAR_DATE(1999,1,1);
#121=CALENDAR_DATE(1999,1,1);
#122=DATE_AND_TIME(#117,#112);
#123=DATE_AND_TIME(#118,#113);
#124=DATE_AND_TIME(#119,#114);
#125=DATE_AND_TIME(#120,#115);
#126=DATE_AND_TIME(#121,#116);
#127=APPROVAL_DATE_TIME(#122,#133);
#128=APPROVAL_DATE_TIME(#123,#134);
#129=APPROVAL_DATE_TIME(#125,#135);
#130=APPROVAL_STATUS('not_yet_approved');
#131=APPROVAL_STATUS('not_yet_approved');
#132=APPROVAL_STATUS('approved');
#133=APPROVAL(#130,'Version approval');
#134=APPROVAL(#131,'Version Security approval');
#135=APPROVAL(#132,'Definition approval');
#136=CC_DESIGN_APPROVAL(#133,(#139));
#137=CC_DESIGN_APPROVAL(#134,(#103));
#138=CC_DESIGN_APPROVAL(#135,(#97));
#139=PRODUCT_DEFINITION_FORMATION_WITH_SPECIFIED_SOURCE('A',
'First version',#171,.MADE.);
#140=PERSON_AND_ORGANIZATION_ROLE('design_owner');
#141=PERSON_AND_ORGANIZATION_ROLE('creator');
#142=PERSON_AND_ORGANIZATION_ROLE('design_supplier');
#143=PERSON_AND_ORGANIZATION_ROLE('classification_officer');
#144=PERSON_AND_ORGANIZATION_ROLE('creator');
#145=ORGANIZATION('STI','lab','lab');
#146=ORGANIZATION('STI','unknown','unknown');
#147=ORGANIZATION('STI','unknown','unknown');
#148=ORGANIZATION('STI','unknown','unknown');
#149=ORGANIZATION('STI','unknown','unknown');
#150=ORGANIZATION('STI','unknown','unknown');
#151=ORGANIZATION('STI','unknown','unknown');
#152=PERSON('1','Box','vc60',$,$,$);
#153=PERSON('2','last','first',$,$,$);
#154=PERSON('3','President','Mr.',$,$,$);
#155=PERSON_AND_ORGANIZATION(#152,#145);
#156=PERSON_AND_ORGANIZATION(#153,#146);
#157=PERSON_AND_ORGANIZATION(#154,#147);
#158=PERSON_AND_ORGANIZATION(#154,#148);
#159=PERSON_AND_ORGANIZATION(#154,#149);
#160=PERSON_AND_ORGANIZATION(#153,#150);
#161=PERSON_AND_ORGANIZATION(#154,#151);
#162=CC_DESIGN_PERSON_AND_ORGANIZATION_ASSIGNMENT(#155,#140,(#171));
#163=CC_DESIGN_PERSON_AND_ORGANIZATION_ASSIGNMENT(#156,#141,(#139));
#164=CC_DESIGN_PERSON_AND_ORGANIZATION_ASSIGNMENT(#156,#142,(#139));
#165=CC_DESIGN_PERSON_AND_ORGANIZATION_ASSIGNMENT(#159,#143,(#103));
#166=CC_DESIGN_PERSON_AND_ORGANIZATION_ASSIGNMENT(#160,#144,(#97));
#167=PRODUCT_RELATED_PRODUCT_CATEGORY('detail','detail',(#171));
#168=APPLICATION_PROTOCOL_DEFINITION('International Standard',
'config_control_design',1994,#169);
#169=APPLICATION_CONTEXT(
'configuration controlled 3d designs of mechanical parts and assemblies
');
#170=MECHANICAL_CONTEXT('3D Mechanical Parts',#169,'mechanical');
#171=PRODUCT('1','Document','Rhino converted to STEP',(#170));
#172=(
LENGTH_UNIT()
NAMED_UNIT(*)
SI_UNIT(.CENTI.,.METRE.)
);
#173=(
NAMED_UNIT(*)
PLANE_ANGLE_UNIT()
SI_UNIT($,.RADIAN.)
);
#174=DIMENSIONAL_EXPONENTS(0.,0.,0.,0.,0.,0.,0.);
#175=PLANE_ANGLE_MEASURE_WITH_UNIT(PLANE_ANGLE_MEASURE(0.01745329252),#173);
#176=(
CONVERSION_BASED_UNIT('DEGREES',#175)
NAMED_UNIT(#174)
PLANE_ANGLE_UNIT()
);
#177=(
NAMED_UNIT(*)
SI_UNIT($,.STERADIAN.)
SOLID_ANGLE_UNIT()
);
#178=UNCERTAINTY_MEASURE_WITH_UNIT(LENGTH_MEASURE(0.01),#172,
'DISTANCE_ACCURACY_VALUE',
'Maximum model space distance between geometric entities at asserted co
nnectivities');
#179=(
GEOMETRIC_REPRESENTATION_CONTEXT(3)
GLOBAL_UNCERTAINTY_ASSIGNED_CONTEXT((#178))
GLOBAL_UNIT_ASSIGNED_CONTEXT((#177,#176,#172))
REPRESENTATION_CONTEXT('ID1','3D')
);
#180=SHAPE_REPRESENTATION('Document',(#181,#186),#179);
#181=AXIS2_PLACEMENT_3D('',#195,#187,#188);
#182=AXIS2_PLACEMENT_3D($,#256,#189,$);
#183=AXIS2_PLACEMENT_3D($,#279,#190,$);
#184=AXIS2_PLACEMENT_3D($,#280,#191,$);
#185=AXIS2_PLACEMENT_3D($,#303,#192,$);
#186=AXIS2_PLACEMENT_3D('',#312,#193,#194);
#187=DIRECTION($,(0.,0.,1.));
#188=DIRECTION($,(1.,0.,0.));
#189=DIRECTION($,(0.,-1.,0.));
#190=DIRECTION($,(0.,1.,0.));
#191=DIRECTION($,(0.,0.,-1.));
#192=DIRECTION($,(0.,0.,-1.));
#193=DIRECTION($,(0.,0.,1.));
#194=DIRECTION($,(1.,0.,0.));
#195=CARTESIAN_POINT($,(0.,0.,0.));
#196=CARTESIAN_POINT($,(46.5,0.,0.));
#197=CARTESIAN_POINT($,(47.5,0.,0.));
#198=CARTESIAN_POINT($,(46.5,0.,0.));
#199=CARTESIAN_POINT($,(46.5,45.,0.));
#200=CARTESIAN_POINT($,(46.5,45.,0.));
#201=CARTESIAN_POINT($,(47.5,45.,0.));
#202=CARTESIAN_POINT($,(1.,0.,0.));
#203=CARTESIAN_POINT($,(1.,0.,19.5));
#204=CARTESIAN_POINT($,(1.,0.,39.));
#205=CARTESIAN_POINT($,(0.999999999999996,0.,40.5));
#206=CARTESIAN_POINT($,(2.5,0.,40.5));
#207=CARTESIAN_POINT($,(23.75,0.,40.5));
#208=CARTESIAN_POINT($,(45.,0.,40.5));
#209=CARTESIAN_POINT($,(46.5,0.,40.5));
#210=CARTESIAN_POINT($,(46.5,0.,39.));
#211=CARTESIAN_POINT($,(46.5,0.,19.5));
#212=CARTESIAN_POINT($,(46.5,0.,0.));
#213=CARTESIAN_POINT($,(0.,0.,0.));
#214=CARTESIAN_POINT($,(1.,0.,0.));
#215=CARTESIAN_POINT($,(47.5,0.,0.));
#216=CARTESIAN_POINT($,(47.5,0.,19.5));
#217=CARTESIAN_POINT($,(47.5,0.,39.));
#218=CARTESIAN_POINT($,(47.5,0.,41.5));
#219=CARTESIAN_POINT($,(45.,0.,41.5));
#220=CARTESIAN_POINT($,(23.75,0.,41.5));
#221=CARTESIAN_POINT($,(2.5,0.,41.5));
#222=CARTESIAN_POINT($,(0.,0.,41.5));
#223=CARTESIAN_POINT($,(0.,0.,39.));
#224=CARTESIAN_POINT($,(0.,0.,19.5));
#225=CARTESIAN_POINT($,(0.,0.,0.));
#226=CARTESIAN_POINT($,(1.,45.,0.));
#227=CARTESIAN_POINT($,(1.,45.,19.5));
#228=CARTESIAN_POINT($,(1.,45.,39.));
#229=CARTESIAN_POINT($,(0.999999999999996,45.,40.5));
#230=CARTESIAN_POINT($,(2.5,45.,40.5));
#231=CARTESIAN_POINT($,(23.75,45.,40.5));
#232=CARTESIAN_POINT($,(45.,45.,40.5));
#233=CARTESIAN_POINT($,(46.5,45.,40.5));
#234=CARTESIAN_POINT($,(46.5,45.,39.));
#235=CARTESIAN_POINT($,(46.5,45.,19.5));
#236=CARTESIAN_POINT($,(46.5,45.,0.));
#237=CARTESIAN_POINT($,(0.,45.,0.));
#238=CARTESIAN_POINT($,(1.,45.,0.));
#239=CARTESIAN_POINT($,(47.5,45.,0.));
#240=CARTESIAN_POINT($,(47.5,45.,19.5));
#241=CARTESIAN_POINT($,(47.5,45.,39.));
#242=CARTESIAN_POINT($,(47.5,45.,41.5));
#243=CARTESIAN_POINT($,(45.,45.,41.5));
#244=CARTESIAN_POINT($,(23.75,45.,41.5));
#245=CARTESIAN_POINT($,(2.5,45.,41.5));
#246=CARTESIAN_POINT($,(0.,45.,41.5));
#247=CARTESIAN_POINT($,(0.,45.,39.));
#248=CARTESIAN_POINT($,(0.,45.,19.5));
#249=CARTESIAN_POINT($,(0.,45.,0.));
#250=CARTESIAN_POINT($,(1.,0.,0.));
#251=CARTESIAN_POINT($,(1.,45.,0.));
#252=CARTESIAN_POINT($,(0.,0.,0.));
#253=CARTESIAN_POINT($,(0.,45.,0.));
#254=CARTESIAN_POINT($,(47.5,0.,0.));
#255=CARTESIAN_POINT($,(47.5,45.,0.));
#256=CARTESIAN_POINT($,(0.,0.,0.));
#257=CARTESIAN_POINT($,(46.5,0.,0.));
#258=CARTESIAN_POINT($,(46.5,45.,0.));
#259=CARTESIAN_POINT($,(46.5,0.,19.5));
#260=CARTESIAN_POINT($,(46.5,45.,19.5));
#261=CARTESIAN_POINT($,(46.5,0.,39.));
#262=CARTESIAN_POINT($,(46.5,45.,39.));
#263=CARTESIAN_POINT($,(46.5,0.,40.5));
#264=CARTESIAN_POINT($,(46.5,45.,40.5));
#265=CARTESIAN_POINT($,(45.,0.,40.5));
#266=CARTESIAN_POINT($,(45.,45.,40.5));
#267=CARTESIAN_POINT($,(23.75,0.,40.5));
#268=CARTESIAN_POINT($,(23.75,45.,40.5));
#269=CARTESIAN_POINT($,(2.5,0.,40.5));
#270=CARTESIAN_POINT($,(2.5,45.,40.5));
#271=CARTESIAN_POINT($,(0.999999999999996,0.,40.5));
#272=CARTESIAN_POINT($,(0.999999999999996,45.,40.5));
#273=CARTESIAN_POINT($,(1.,0.,39.));
#274=CARTESIAN_POINT($,(1.,45.,39.));
#275=CARTESIAN_POINT($,(1.,0.,19.5));
#276=CARTESIAN_POINT($,(1.,45.,19.5));
#277=CARTESIAN_POINT($,(1.,0.,0.));
#278=CARTESIAN_POINT($,(1.,45.,0.));
#279=CARTESIAN_POINT($,(0.,45.,0.));
#280=CARTESIAN_POINT($,(1.,0.,0.));
#281=CARTESIAN_POINT($,(0.,0.,0.));
#282=CARTESIAN_POINT($,(0.,45.,0.));
#283=CARTESIAN_POINT($,(0.,0.,19.5));
#284=CARTESIAN_POINT($,(0.,45.,19.5));
#285=CARTESIAN_POINT($,(0.,0.,39.));
#286=CARTESIAN_POINT($,(0.,45.,39.));
#287=CARTESIAN_POINT($,(0.,0.,41.5));
#288=CARTESIAN_POINT($,(0.,45.,41.5));
#289=CARTESIAN_POINT($,(2.5,0.,41.5));
#290=CARTESIAN_POINT($,(2.5,45.,41.5));
#291=CARTESIAN_POINT($,(23.75,0.,41.5));
#292=CARTESIAN_POINT($,(23.75,45.,41.5));
#293=CARTESIAN_POINT($,(45.,0.,41.5));
#294=CARTESIAN_POINT($,(45.,45.,41.5));
#295=CARTESIAN_POINT($,(47.5,0.,41.5));
#296=CARTESIAN_POINT($,(47.5,45.,41.5));
#297=CARTESIAN_POINT($,(47.5,0.,39.));
#298=CARTESIAN_POINT($,(47.5,45.,39.));
#299=CARTESIAN_POINT($,(47.5,0.,19.5));
#300=CARTESIAN_POINT($,(47.5,45.,19.5));
#301=CARTESIAN_POINT($,(47.5,0.,0.));
#302=CARTESIAN_POINT($,(47.5,45.,0.));
#303=CARTESIAN_POINT($,(47.5,0.,0.));
#304=CARTESIAN_POINT($,(46.5,0.,0.));
#305=CARTESIAN_POINT($,(46.5,45.,0.));
#306=CARTESIAN_POINT($,(1.,0.,0.));
#307=CARTESIAN_POINT($,(0.,0.,0.));
#308=CARTESIAN_POINT($,(47.5,0.,0.));
#309=CARTESIAN_POINT($,(1.,45.,0.));
#310=CARTESIAN_POINT($,(0.,45.,0.));
#311=CARTESIAN_POINT($,(47.5,45.,0.));
#312=CARTESIAN_POINT($,(0.,0.,0.));
ENDSEC;
END-ISO-10303-21;
