ISO-10303-21;
HEADER;
/* Generated by software containing ST-Developer
 * from STEP Tools, Inc. (www.steptools.com) 
 */
/* OPTION: using custom schema-name function */

FILE_DESCRIPTION(
/* description */ (''),
/* implementation_level */ '2;1');

FILE_NAME(
/* name */ '0168-T - Rialto 130x68 H43',
/* time_stamp */ '2010-11-04T09:03:59+01:00',
/* author */ (''),
/* organization */ (''),
/* preprocessor_version */ 'ST-DEVELOPER v10',
/* originating_system */ '',
/* authorisation */ '');

FILE_SCHEMA (('CONFIG_CONTROL_DESIGN'));
ENDSEC;

DATA;
#10=SHAPE_REPRESENTATION_RELATIONSHIP('','',#180,#12);
#11=MANIFOLD_SOLID_BREP('brep_1',#13);
#12=ADVANCED_BREP_SHAPE_REPRESENTATION($,(#11,#186),#179);
#13=CLOSED_SHELL($,(#14,#15,#16,#17,#18,#19));
#14=ADVANCED_FACE($,(#20),#78,.T.);
#15=ADVANCED_FACE($,(#21),#79,.T.);
#16=ADVANCED_FACE($,(#22),#80,.T.);
#17=ADVANCED_FACE($,(#23),#76,.T.);
#18=ADVANCED_FACE($,(#24),#81,.T.);
#19=ADVANCED_FACE($,(#25),#77,.T.);
#20=FACE_OUTER_BOUND($,#26,.T.);
#21=FACE_OUTER_BOUND($,#27,.T.);
#22=FACE_OUTER_BOUND($,#28,.T.);
#23=FACE_OUTER_BOUND($,#29,.T.);
#24=FACE_OUTER_BOUND($,#30,.T.);
#25=FACE_OUTER_BOUND($,#31,.T.);
#26=EDGE_LOOP($,(#32,#33,#34,#35));
#27=EDGE_LOOP($,(#36,#37,#38,#39));
#28=EDGE_LOOP($,(#40,#41,#42,#43));
#29=EDGE_LOOP($,(#44,#45,#46,#47));
#30=EDGE_LOOP($,(#48,#49,#50,#51));
#31=EDGE_LOOP($,(#52,#53,#54,#55));
#32=ORIENTED_EDGE($,*,*,#59,.F.);
#33=ORIENTED_EDGE($,*,*,#60,.F.);
#34=ORIENTED_EDGE($,*,*,#61,.F.);
#35=ORIENTED_EDGE($,*,*,#56,.F.);
#36=ORIENTED_EDGE($,*,*,#59,.T.);
#37=ORIENTED_EDGE($,*,*,#57,.T.);
#38=ORIENTED_EDGE($,*,*,#62,.F.);
#39=ORIENTED_EDGE($,*,*,#65,.F.);
#40=ORIENTED_EDGE($,*,*,#58,.T.);
#41=ORIENTED_EDGE($,*,*,#64,.T.);
#42=ORIENTED_EDGE($,*,*,#63,.T.);
#43=ORIENTED_EDGE($,*,*,#62,.T.);
#44=ORIENTED_EDGE($,*,*,#60,.T.);
#45=ORIENTED_EDGE($,*,*,#65,.T.);
#46=ORIENTED_EDGE($,*,*,#63,.F.);
#47=ORIENTED_EDGE($,*,*,#66,.F.);
#48=ORIENTED_EDGE($,*,*,#61,.T.);
#49=ORIENTED_EDGE($,*,*,#66,.T.);
#50=ORIENTED_EDGE($,*,*,#64,.F.);
#51=ORIENTED_EDGE($,*,*,#67,.F.);
#52=ORIENTED_EDGE($,*,*,#67,.T.);
#53=ORIENTED_EDGE($,*,*,#58,.F.);
#54=ORIENTED_EDGE($,*,*,#57,.F.);
#55=ORIENTED_EDGE($,*,*,#56,.T.);
#56=EDGE_CURVE($,#68,#72,#90,.T.);
#57=EDGE_CURVE($,#68,#69,#82,.T.);
#58=EDGE_CURVE($,#69,#75,#91,.T.);
#59=EDGE_CURVE($,#70,#68,#83,.T.);
#60=EDGE_CURVE($,#71,#70,#92,.T.);
#61=EDGE_CURVE($,#72,#71,#84,.T.);
#62=EDGE_CURVE($,#73,#69,#85,.T.);
#63=EDGE_CURVE($,#74,#73,#93,.T.);
#64=EDGE_CURVE($,#75,#74,#86,.T.);
#65=EDGE_CURVE($,#70,#73,#87,.T.);
#66=EDGE_CURVE($,#71,#74,#88,.T.);
#67=EDGE_CURVE($,#72,#75,#89,.T.);
#68=VERTEX_POINT($,#304);
#69=VERTEX_POINT($,#305);
#70=VERTEX_POINT($,#306);
#71=VERTEX_POINT($,#307);
#72=VERTEX_POINT($,#308);
#73=VERTEX_POINT($,#309);
#74=VERTEX_POINT($,#310);
#75=VERTEX_POINT($,#311);
#76=(
BOUNDED_SURFACE()
B_SPLINE_SURFACE(1,2,((#259,#260,#261,#262,#263,#264,#265,#266,#267,#268,
#269),(#270,#271,#272,#273,#274,#275,#276,#277,#278,#279,#280)),.UNSPECIFIED.,
.F.,.F.,.F.)
B_SPLINE_SURFACE_WITH_KNOTS((2,2),(3,2,2,2,2,3),(0.,68.),(-801.393361431346,
-761.093361431346,-758.737166941154,-633.937166941154,-631.580972450962,
-591.280972450962),.UNSPECIFIED.)
GEOMETRIC_REPRESENTATION_ITEM()
RATIONAL_B_SPLINE_SURFACE(((1.,1.,1.,0.707106781186537,1.,1.,1.,0.707106781186551,
1.,1.,1.),(1.,1.,1.,0.707106781186537,1.,1.,1.,0.707106781186551,1.,1.,1.)))
REPRESENTATION_ITEM($)
SURFACE()
);
#77=(
BOUNDED_SURFACE()
B_SPLINE_SURFACE(1,2,((#282,#283,#284,#285,#286,#287,#288,#289,#290,#291,
#292),(#293,#294,#295,#296,#297,#298,#299,#300,#301,#302,#303)),.UNSPECIFIED.,
.F.,.F.,.F.)
B_SPLINE_SURFACE_WITH_KNOTS((2,2),(3,2,2,2,2,3),(0.,68.),(-590.080972450962,
-549.780972450962,-547.424777960769,-422.624777960769,-420.268583470577,
-379.968583470577),.UNSPECIFIED.)
GEOMETRIC_REPRESENTATION_ITEM()
RATIONAL_B_SPLINE_SURFACE(((1.,1.,1.,0.707106781186551,1.,1.,1.,0.707106781186537,
1.,1.,1.),(1.,1.,1.,0.707106781186551,1.,1.,1.,0.707106781186537,1.,1.,1.)))
REPRESENTATION_ITEM($)
SURFACE()
);
#78=PLANE($,#182);
#79=PLANE($,#183);
#80=PLANE($,#184);
#81=PLANE($,#185);
#82=B_SPLINE_CURVE_WITH_KNOTS($,1,(#207,#208),.UNSPECIFIED.,.F.,.F.,(2,2),
(0.,68.),.UNSPECIFIED.);
#83=B_SPLINE_CURVE_WITH_KNOTS($,1,(#220,#221),.UNSPECIFIED.,.F.,.F.,(2,2),
(801.393361431346,802.593361431346),.UNSPECIFIED.);
#84=B_SPLINE_CURVE_WITH_KNOTS($,1,(#233,#234),.UNSPECIFIED.,.F.,.F.,(2,2),
(590.080972450962,591.280972450962),.UNSPECIFIED.);
#85=B_SPLINE_CURVE_WITH_KNOTS($,1,(#235,#236),.UNSPECIFIED.,.F.,.F.,(2,2),
(801.393361431346,802.593361431346),.UNSPECIFIED.);
#86=B_SPLINE_CURVE_WITH_KNOTS($,1,(#248,#249),.UNSPECIFIED.,.F.,.F.,(2,2),
(590.080972450962,591.280972450962),.UNSPECIFIED.);
#87=B_SPLINE_CURVE_WITH_KNOTS($,1,(#250,#251),.UNSPECIFIED.,.F.,.F.,(2,2),
(0.,68.),.UNSPECIFIED.);
#88=B_SPLINE_CURVE_WITH_KNOTS($,1,(#252,#253),.UNSPECIFIED.,.F.,.F.,(2,2),
(0.,68.),.UNSPECIFIED.);
#89=B_SPLINE_CURVE_WITH_KNOTS($,1,(#254,#255),.UNSPECIFIED.,.F.,.F.,(2,2),
(0.,68.),.UNSPECIFIED.);
#90=(
BOUNDED_CURVE()
B_SPLINE_CURVE(2,(#196,#197,#198,#199,#200,#201,#202,#203,#204,#205,#206),
.UNSPECIFIED.,.F.,.F.)
B_SPLINE_CURVE_WITH_KNOTS((3,2,2,2,2,3),(379.968583470577,420.268583470577,
422.624777960769,547.424777960769,549.780972450962,590.080972450962),.UNSPECIFIED.)
CURVE()
GEOMETRIC_REPRESENTATION_ITEM()
RATIONAL_B_SPLINE_CURVE((1.,1.,1.,0.707106781186537,1.,1.,1.,0.707106781186551,
1.,1.,1.))
REPRESENTATION_ITEM($)
);
#91=(
BOUNDED_CURVE()
B_SPLINE_CURVE(2,(#209,#210,#211,#212,#213,#214,#215,#216,#217,#218,#219),
.UNSPECIFIED.,.F.,.F.)
B_SPLINE_CURVE_WITH_KNOTS((3,2,2,2,2,3),(379.968583470577,420.268583470577,
422.624777960769,547.424777960769,549.780972450962,590.080972450962),.UNSPECIFIED.)
CURVE()
GEOMETRIC_REPRESENTATION_ITEM()
RATIONAL_B_SPLINE_CURVE((1.,1.,1.,0.707106781186537,1.,1.,1.,0.707106781186551,
1.,1.,1.))
REPRESENTATION_ITEM($)
);
#92=(
BOUNDED_CURVE()
B_SPLINE_CURVE(2,(#222,#223,#224,#225,#226,#227,#228,#229,#230,#231,#232),
.UNSPECIFIED.,.F.,.F.)
B_SPLINE_CURVE_WITH_KNOTS((3,2,2,2,2,3),(591.280972450962,631.580972450962,
633.937166941154,758.737166941154,761.093361431346,801.393361431346),.UNSPECIFIED.)
CURVE()
GEOMETRIC_REPRESENTATION_ITEM()
RATIONAL_B_SPLINE_CURVE((1.,1.,1.,0.707106781186551,1.,1.,1.,0.707106781186537,
1.,1.,1.))
REPRESENTATION_ITEM($)
);
#93=(
BOUNDED_CURVE()
B_SPLINE_CURVE(2,(#237,#238,#239,#240,#241,#242,#243,#244,#245,#246,#247),
.UNSPECIFIED.,.F.,.F.)
B_SPLINE_CURVE_WITH_KNOTS((3,2,2,2,2,3),(591.280972450962,631.580972450962,
633.937166941154,758.737166941154,761.093361431346,801.393361431346),.UNSPECIFIED.)
CURVE()
GEOMETRIC_REPRESENTATION_ITEM()
RATIONAL_B_SPLINE_CURVE((1.,1.,1.,0.707106781186551,1.,1.,1.,0.707106781186537,
1.,1.,1.))
REPRESENTATION_ITEM($)
);
#94=SHAPE_DEFINITION_REPRESENTATION(#95,#180);
#95=PRODUCT_DEFINITION_SHAPE('Document','',#97);
#96=DESIGN_CONTEXT('3D Mechanical Parts',#169,'design');
#97=PRODUCT_DEFINITION('A','First version',#139,#96);
#98=DATE_TIME_ROLE('classification_date');
#99=DATE_TIME_ROLE('creation_date');
#100=CC_DESIGN_DATE_AND_TIME_ASSIGNMENT(#124,#98,(#103));
#101=CC_DESIGN_DATE_AND_TIME_ASSIGNMENT(#126,#99,(#97));
#102=SECURITY_CLASSIFICATION_LEVEL('unclassified');
#103=SECURITY_CLASSIFICATION('A','Security for version',#102);
#104=CC_DESIGN_SECURITY_CLASSIFICATION(#103,(#139));
#105=APPROVAL_ROLE('Version approval');
#106=APPROVAL_ROLE('Version Security approval');
#107=APPROVAL_ROLE('Definition approval');
#108=APPROVAL_PERSON_ORGANIZATION(#157,#133,#105);
#109=APPROVAL_PERSON_ORGANIZATION(#158,#134,#106);
#110=APPROVAL_PERSON_ORGANIZATION(#161,#135,#107);
#111=COORDINATED_UNIVERSAL_TIME_OFFSET(5,0,.BEHIND.);
#112=LOCAL_TIME(0,0,0.,#111);
#113=LOCAL_TIME(0,0,0.,#111);
#114=LOCAL_TIME(0,0,0.,#111);
#115=LOCAL_TIME(0,0,0.,#111);
#116=LOCAL_TIME(0,0,0.,#111);
#117=CALENDAR_DATE(1999,1,1);
#118=CALENDAR_DATE(1999,1,1);
#119=CALENDAR_DATE(1999,1,1);
#120=CALENDAR_DATE(1999,1,1);
#121=CALENDAR_DATE(1999,1,1);
#122=DATE_AND_TIME(#117,#112);
#123=DATE_AND_TIME(#118,#113);
#124=DATE_AND_TIME(#119,#114);
#125=DATE_AND_TIME(#120,#115);
#126=DATE_AND_TIME(#121,#116);
#127=APPROVAL_DATE_TIME(#122,#133);
#128=APPROVAL_DATE_TIME(#123,#134);
#129=APPROVAL_DATE_TIME(#125,#135);
#130=APPROVAL_STATUS('not_yet_approved');
#131=APPROVAL_STATUS('not_yet_approved');
#132=APPROVAL_STATUS('approved');
#133=APPROVAL(#130,'Version approval');
#134=APPROVAL(#131,'Version Security approval');
#135=APPROVAL(#132,'Definition approval');
#136=CC_DESIGN_APPROVAL(#133,(#139));
#137=CC_DESIGN_APPROVAL(#134,(#103));
#138=CC_DESIGN_APPROVAL(#135,(#97));
#139=PRODUCT_DEFINITION_FORMATION_WITH_SPECIFIED_SOURCE('A',
'First version',#171,.MADE.);
#140=PERSON_AND_ORGANIZATION_ROLE('design_owner');
#141=PERSON_AND_ORGANIZATION_ROLE('creator');
#142=PERSON_AND_ORGANIZATION_ROLE('design_supplier');
#143=PERSON_AND_ORGANIZATION_ROLE('classification_officer');
#144=PERSON_AND_ORGANIZATION_ROLE('creator');
#145=ORGANIZATION('STI','lab','lab');
#146=ORGANIZATION('STI','unknown','unknown');
#147=ORGANIZATION('STI','unknown','unknown');
#148=ORGANIZATION('STI','unknown','unknown');
#149=ORGANIZATION('STI','unknown','unknown');
#150=ORGANIZATION('STI','unknown','unknown');
#151=ORGANIZATION('STI','unknown','unknown');
#152=PERSON('1','Box','vc60',$,$,$);
#153=PERSON('2','last','first',$,$,$);
#154=PERSON('3','President','Mr.',$,$,$);
#155=PERSON_AND_ORGANIZATION(#152,#145);
#156=PERSON_AND_ORGANIZATION(#153,#146);
#157=PERSON_AND_ORGANIZATION(#154,#147);
#158=PERSON_AND_ORGANIZATION(#154,#148);
#159=PERSON_AND_ORGANIZATION(#154,#149);
#160=PERSON_AND_ORGANIZATION(#153,#150);
#161=PERSON_AND_ORGANIZATION(#154,#151);
#162=CC_DESIGN_PERSON_AND_ORGANIZATION_ASSIGNMENT(#155,#140,(#171));
#163=CC_DESIGN_PERSON_AND_ORGANIZATION_ASSIGNMENT(#156,#141,(#139));
#164=CC_DESIGN_PERSON_AND_ORGANIZATION_ASSIGNMENT(#156,#142,(#139));
#165=CC_DESIGN_PERSON_AND_ORGANIZATION_ASSIGNMENT(#159,#143,(#103));
#166=CC_DESIGN_PERSON_AND_ORGANIZATION_ASSIGNMENT(#160,#144,(#97));
#167=PRODUCT_RELATED_PRODUCT_CATEGORY('detail','detail',(#171));
#168=APPLICATION_PROTOCOL_DEFINITION('International Standard',
'config_control_design',1994,#169);
#169=APPLICATION_CONTEXT(
'configuration controlled 3d designs of mechanical parts and assemblies
');
#170=MECHANICAL_CONTEXT('3D Mechanical Parts',#169,'mechanical');
#171=PRODUCT('1','Document','Rhino converted to STEP',(#170));
#172=(
LENGTH_UNIT()
NAMED_UNIT(*)
SI_UNIT(.CENTI.,.METRE.)
);
#173=(
NAMED_UNIT(*)
PLANE_ANGLE_UNIT()
SI_UNIT($,.RADIAN.)
);
#174=DIMENSIONAL_EXPONENTS(0.,0.,0.,0.,0.,0.,0.);
#175=PLANE_ANGLE_MEASURE_WITH_UNIT(PLANE_ANGLE_MEASURE(0.01745329252),#173);
#176=(
CONVERSION_BASED_UNIT('DEGREES',#175)
NAMED_UNIT(#174)
PLANE_ANGLE_UNIT()
);
#177=(
NAMED_UNIT(*)
SI_UNIT($,.STERADIAN.)
SOLID_ANGLE_UNIT()
);
#178=UNCERTAINTY_MEASURE_WITH_UNIT(LENGTH_MEASURE(0.01),#172,
'DISTANCE_ACCURACY_VALUE',
'Maximum model space distance between geometric entities at asserted co
nnectivities');
#179=(
GEOMETRIC_REPRESENTATION_CONTEXT(3)
GLOBAL_UNCERTAINTY_ASSIGNED_CONTEXT((#178))
GLOBAL_UNIT_ASSIGNED_CONTEXT((#177,#176,#172))
REPRESENTATION_CONTEXT('ID1','3D')
);
#180=SHAPE_REPRESENTATION('Document',(#181,#186),#179);
#181=AXIS2_PLACEMENT_3D('',#195,#187,#188);
#182=AXIS2_PLACEMENT_3D($,#256,#189,$);
#183=AXIS2_PLACEMENT_3D($,#257,#190,$);
#184=AXIS2_PLACEMENT_3D($,#258,#191,$);
#185=AXIS2_PLACEMENT_3D($,#281,#192,$);
#186=AXIS2_PLACEMENT_3D('',#312,#193,#194);
#187=DIRECTION($,(0.,0.,1.));
#188=DIRECTION($,(1.,0.,0.));
#189=DIRECTION($,(0.,-1.,0.));
#190=DIRECTION($,(0.,0.,-1.));
#191=DIRECTION($,(0.,1.,0.));
#192=DIRECTION($,(0.,0.,-1.));
#193=DIRECTION($,(0.,0.,1.));
#194=DIRECTION($,(1.,0.,0.));
#195=CARTESIAN_POINT($,(0.,0.,0.));
#196=CARTESIAN_POINT($,(129.,0.,1.58033308661487E-15));
#197=CARTESIAN_POINT($,(129.,0.,20.15));
#198=CARTESIAN_POINT($,(129.,0.,40.3));
#199=CARTESIAN_POINT($,(129.,0.,41.8));
#200=CARTESIAN_POINT($,(127.5,0.,41.8));
#201=CARTESIAN_POINT($,(65.1,0.,41.8));
#202=CARTESIAN_POINT($,(2.69999999999999,0.,41.8));
#203=CARTESIAN_POINT($,(1.2,0.,41.8));
#204=CARTESIAN_POINT($,(1.2,0.,40.3));
#205=CARTESIAN_POINT($,(1.2,0.,20.15));
#206=CARTESIAN_POINT($,(1.2,0.,5.20417042793042E-17));
#207=CARTESIAN_POINT($,(129.,0.,1.58033308661487E-15));
#208=CARTESIAN_POINT($,(129.,68.,1.58033308661487E-15));
#209=CARTESIAN_POINT($,(129.,68.,1.58033308661487E-15));
#210=CARTESIAN_POINT($,(129.,68.,20.15));
#211=CARTESIAN_POINT($,(129.,68.,40.3));
#212=CARTESIAN_POINT($,(129.,68.,41.8));
#213=CARTESIAN_POINT($,(127.5,68.,41.8));
#214=CARTESIAN_POINT($,(65.1,68.,41.8));
#215=CARTESIAN_POINT($,(2.69999999999999,68.,41.8));
#216=CARTESIAN_POINT($,(1.2,68.,41.8));
#217=CARTESIAN_POINT($,(1.2,68.,40.3));
#218=CARTESIAN_POINT($,(1.2,68.,20.15));
#219=CARTESIAN_POINT($,(1.2,68.,5.20417042793042E-17));
#220=CARTESIAN_POINT($,(130.2,0.,1.58033308661487E-15));
#221=CARTESIAN_POINT($,(129.,0.,1.58033308661487E-15));
#222=CARTESIAN_POINT($,(-2.91765095208659E-16,0.,5.20417042793042E-17));
#223=CARTESIAN_POINT($,(6.3127356963328E-16,0.,20.15));
#224=CARTESIAN_POINT($,(1.55431223447522E-15,0.,40.3));
#225=CARTESIAN_POINT($,(1.27447348794721E-15,0.,42.9999999999999));
#226=CARTESIAN_POINT($,(2.69999999999998,0.,43.));
#227=CARTESIAN_POINT($,(65.1,0.,43.));
#228=CARTESIAN_POINT($,(127.5,0.,43.));
#229=CARTESIAN_POINT($,(130.2,0.,43.));
#230=CARTESIAN_POINT($,(130.2,0.,40.3));
#231=CARTESIAN_POINT($,(130.2,0.,20.15));
#232=CARTESIAN_POINT($,(130.2,0.,1.58033308661487E-15));
#233=CARTESIAN_POINT($,(1.2,0.,5.20417042793042E-17));
#234=CARTESIAN_POINT($,(-2.91765095208659E-16,0.,5.20417042793042E-17));
#235=CARTESIAN_POINT($,(130.2,68.,1.58033308661487E-15));
#236=CARTESIAN_POINT($,(129.,68.,1.58033308661487E-15));
#237=CARTESIAN_POINT($,(-2.91765095208659E-16,68.,5.20417042793042E-17));
#238=CARTESIAN_POINT($,(6.3127356963328E-16,68.,20.15));
#239=CARTESIAN_POINT($,(1.55431223447522E-15,68.,40.3));
#240=CARTESIAN_POINT($,(1.27447348794721E-15,68.,42.9999999999999));
#241=CARTESIAN_POINT($,(2.69999999999998,68.,43.));
#242=CARTESIAN_POINT($,(65.1,68.,43.));
#243=CARTESIAN_POINT($,(127.5,68.,43.));
#244=CARTESIAN_POINT($,(130.2,68.,43.));
#245=CARTESIAN_POINT($,(130.2,68.,40.3));
#246=CARTESIAN_POINT($,(130.2,68.,20.15));
#247=CARTESIAN_POINT($,(130.2,68.,1.58033308661487E-15));
#248=CARTESIAN_POINT($,(1.2,68.,5.20417042793042E-17));
#249=CARTESIAN_POINT($,(-2.91765095208659E-16,68.,5.20417042793042E-17));
#250=CARTESIAN_POINT($,(130.2,0.,1.58033308661487E-15));
#251=CARTESIAN_POINT($,(130.2,68.,1.58033308661487E-15));
#252=CARTESIAN_POINT($,(-2.91765095208659E-16,0.,5.20417042793042E-17));
#253=CARTESIAN_POINT($,(-2.91765095208659E-16,68.,5.20417042793042E-17));
#254=CARTESIAN_POINT($,(1.2,0.,5.20417042793042E-17));
#255=CARTESIAN_POINT($,(1.2,68.,5.20417042793042E-17));
#256=CARTESIAN_POINT($,(0.,0.,43.));
#257=CARTESIAN_POINT($,(129.,0.,1.58033308661487E-15));
#258=CARTESIAN_POINT($,(0.,68.,43.));
#259=CARTESIAN_POINT($,(130.2,0.,1.58033308661487E-15));
#260=CARTESIAN_POINT($,(130.2,0.,20.15));
#261=CARTESIAN_POINT($,(130.2,0.,40.3));
#262=CARTESIAN_POINT($,(130.2,0.,43.));
#263=CARTESIAN_POINT($,(127.5,0.,43.));
#264=CARTESIAN_POINT($,(65.1,0.,43.));
#265=CARTESIAN_POINT($,(2.69999999999998,0.,43.));
#266=CARTESIAN_POINT($,(1.27447348794721E-15,0.,42.9999999999999));
#267=CARTESIAN_POINT($,(1.55431223447522E-15,0.,40.3));
#268=CARTESIAN_POINT($,(6.3127356963328E-16,0.,20.15));
#269=CARTESIAN_POINT($,(-2.91765095208659E-16,0.,5.20417042793042E-17));
#270=CARTESIAN_POINT($,(130.2,68.,1.58033308661487E-15));
#271=CARTESIAN_POINT($,(130.2,68.,20.15));
#272=CARTESIAN_POINT($,(130.2,68.,40.3));
#273=CARTESIAN_POINT($,(130.2,68.,43.));
#274=CARTESIAN_POINT($,(127.5,68.,43.));
#275=CARTESIAN_POINT($,(65.1,68.,43.));
#276=CARTESIAN_POINT($,(2.69999999999998,68.,43.));
#277=CARTESIAN_POINT($,(1.27447348794721E-15,68.,42.9999999999999));
#278=CARTESIAN_POINT($,(1.55431223447522E-15,68.,40.3));
#279=CARTESIAN_POINT($,(6.3127356963328E-16,68.,20.15));
#280=CARTESIAN_POINT($,(-2.91765095208659E-16,68.,5.20417042793042E-17));
#281=CARTESIAN_POINT($,(-2.91765095208659E-16,0.,5.20417042793042E-17));
#282=CARTESIAN_POINT($,(1.2,0.,5.20417042793042E-17));
#283=CARTESIAN_POINT($,(1.2,0.,20.15));
#284=CARTESIAN_POINT($,(1.2,0.,40.3));
#285=CARTESIAN_POINT($,(1.2,0.,41.8));
#286=CARTESIAN_POINT($,(2.69999999999999,0.,41.8));
#287=CARTESIAN_POINT($,(65.1,0.,41.8));
#288=CARTESIAN_POINT($,(127.5,0.,41.8));
#289=CARTESIAN_POINT($,(129.,0.,41.8));
#290=CARTESIAN_POINT($,(129.,0.,40.3));
#291=CARTESIAN_POINT($,(129.,0.,20.15));
#292=CARTESIAN_POINT($,(129.,0.,1.58033308661487E-15));
#293=CARTESIAN_POINT($,(1.2,68.,5.20417042793042E-17));
#294=CARTESIAN_POINT($,(1.2,68.,20.15));
#295=CARTESIAN_POINT($,(1.2,68.,40.3));
#296=CARTESIAN_POINT($,(1.2,68.,41.8));
#297=CARTESIAN_POINT($,(2.69999999999999,68.,41.8));
#298=CARTESIAN_POINT($,(65.1,68.,41.8));
#299=CARTESIAN_POINT($,(127.5,68.,41.8));
#300=CARTESIAN_POINT($,(129.,68.,41.8));
#301=CARTESIAN_POINT($,(129.,68.,40.3));
#302=CARTESIAN_POINT($,(129.,68.,20.15));
#303=CARTESIAN_POINT($,(129.,68.,1.58033308661487E-15));
#304=CARTESIAN_POINT($,(129.,0.,1.58033308661487E-15));
#305=CARTESIAN_POINT($,(129.,68.,1.58033308661487E-15));
#306=CARTESIAN_POINT($,(130.2,0.,1.58033308661487E-15));
#307=CARTESIAN_POINT($,(-2.91765095208659E-16,0.,5.20417042793042E-17));
#308=CARTESIAN_POINT($,(1.2,0.,5.20417042793042E-17));
#309=CARTESIAN_POINT($,(130.2,68.,1.58033308661487E-15));
#310=CARTESIAN_POINT($,(-2.91765095208659E-16,68.,5.20417042793042E-17));
#311=CARTESIAN_POINT($,(1.2,68.,5.20417042793042E-17));
#312=CARTESIAN_POINT($,(0.,0.,0.));
ENDSEC;
END-ISO-10303-21;
