ISO-10303-21;
HEADER;
/* Generated by software containing ST-Developer
 * from STEP Tools, Inc. (www.steptools.com) 
 */
/* OPTION: using custom schema-name function */

FILE_DESCRIPTION(
/* description */ (''),
/* implementation_level */ '2;1');

FILE_NAME(
/* name */ 'LI-AP010',
/* time_stamp */ '2019-07-09T11:19:11+02:00',
/* author */ (''),
/* organization */ (''),
/* preprocessor_version */ 'ST-DEVELOPER v15',
/* originating_system */ '',
/* authorisation */ '');

FILE_SCHEMA (('AUTOMOTIVE_DESIGN'));
ENDSEC;

DATA;
#10=SHAPE_REPRESENTATION_RELATIONSHIP('','',#155,#13);
#11=PRESENTATION_LAYER_ASSIGNMENT('DISEGNO','',(#12));
#12=MANIFOLD_SOLID_BREP('brep_1',#14);
#13=ADVANCED_BREP_SHAPE_REPRESENTATION('brep_rep_0',(#12,#157),#154);
#14=CLOSED_SHELL('',(#15,#16,#17,#18,#19,#20,#21,#22,#23,#24));
#15=ADVANCED_FACE('',(#25),#127,.T.);
#16=ADVANCED_FACE('',(#26),#128,.T.);
#17=ADVANCED_FACE('',(#27),#129,.T.);
#18=ADVANCED_FACE('',(#28),#130,.T.);
#19=ADVANCED_FACE('',(#29),#131,.T.);
#20=ADVANCED_FACE('',(#30),#132,.T.);
#21=ADVANCED_FACE('',(#31),#133,.T.);
#22=ADVANCED_FACE('',(#32),#134,.T.);
#23=ADVANCED_FACE('',(#33),#135,.T.);
#24=ADVANCED_FACE('',(#34),#136,.T.);
#25=FACE_OUTER_BOUND('',#35,.T.);
#26=FACE_OUTER_BOUND('',#36,.T.);
#27=FACE_OUTER_BOUND('',#37,.T.);
#28=FACE_OUTER_BOUND('',#38,.T.);
#29=FACE_OUTER_BOUND('',#39,.T.);
#30=FACE_OUTER_BOUND('',#40,.T.);
#31=FACE_OUTER_BOUND('',#41,.T.);
#32=FACE_OUTER_BOUND('',#42,.T.);
#33=FACE_OUTER_BOUND('',#43,.T.);
#34=FACE_OUTER_BOUND('',#44,.T.);
#35=EDGE_LOOP('',(#45,#46,#47));
#36=EDGE_LOOP('',(#48,#49,#50));
#37=EDGE_LOOP('',(#51,#52,#53,#54));
#38=EDGE_LOOP('',(#55,#56,#57,#58));
#39=EDGE_LOOP('',(#59,#60,#61,#62));
#40=EDGE_LOOP('',(#63,#64,#65));
#41=EDGE_LOOP('',(#66,#67,#68));
#42=EDGE_LOOP('',(#69,#70,#71,#72));
#43=EDGE_LOOP('',(#73,#74,#75,#76));
#44=EDGE_LOOP('',(#77,#78,#79,#80));
#45=ORIENTED_EDGE('',*,*,#90,.T.);
#46=ORIENTED_EDGE('',*,*,#82,.F.);
#47=ORIENTED_EDGE('',*,*,#89,.T.);
#48=ORIENTED_EDGE('',*,*,#92,.T.);
#49=ORIENTED_EDGE('',*,*,#86,.F.);
#50=ORIENTED_EDGE('',*,*,#81,.F.);
#51=ORIENTED_EDGE('',*,*,#94,.T.);
#52=ORIENTED_EDGE('',*,*,#87,.F.);
#53=ORIENTED_EDGE('',*,*,#85,.F.);
#54=ORIENTED_EDGE('',*,*,#86,.T.);
#55=ORIENTED_EDGE('',*,*,#96,.T.);
#56=ORIENTED_EDGE('',*,*,#88,.F.);
#57=ORIENTED_EDGE('',*,*,#84,.F.);
#58=ORIENTED_EDGE('',*,*,#87,.T.);
#59=ORIENTED_EDGE('',*,*,#98,.T.);
#60=ORIENTED_EDGE('',*,*,#89,.F.);
#61=ORIENTED_EDGE('',*,*,#83,.F.);
#62=ORIENTED_EDGE('',*,*,#88,.T.);
#63=ORIENTED_EDGE('',*,*,#91,.T.);
#64=ORIENTED_EDGE('',*,*,#82,.T.);
#65=ORIENTED_EDGE('',*,*,#90,.F.);
#66=ORIENTED_EDGE('',*,*,#81,.T.);
#67=ORIENTED_EDGE('',*,*,#93,.F.);
#68=ORIENTED_EDGE('',*,*,#92,.F.);
#69=ORIENTED_EDGE('',*,*,#93,.T.);
#70=ORIENTED_EDGE('',*,*,#85,.T.);
#71=ORIENTED_EDGE('',*,*,#95,.F.);
#72=ORIENTED_EDGE('',*,*,#94,.F.);
#73=ORIENTED_EDGE('',*,*,#95,.T.);
#74=ORIENTED_EDGE('',*,*,#84,.T.);
#75=ORIENTED_EDGE('',*,*,#97,.F.);
#76=ORIENTED_EDGE('',*,*,#96,.F.);
#77=ORIENTED_EDGE('',*,*,#97,.T.);
#78=ORIENTED_EDGE('',*,*,#83,.T.);
#79=ORIENTED_EDGE('',*,*,#91,.F.);
#80=ORIENTED_EDGE('',*,*,#98,.F.);
#81=EDGE_CURVE('',#117,#122,#107,.T.);
#82=EDGE_CURVE('',#119,#118,#108,.T.);
#83=EDGE_CURVE('',#120,#119,#109,.T.);
#84=EDGE_CURVE('',#121,#120,#110,.T.);
#85=EDGE_CURVE('',#122,#121,#111,.T.);
#86=EDGE_CURVE('',#122,#124,#99,.T.);
#87=EDGE_CURVE('',#121,#125,#100,.T.);
#88=EDGE_CURVE('',#120,#126,#101,.T.);
#89=EDGE_CURVE('',#119,#123,#102,.T.);
#90=EDGE_CURVE('',#123,#118,#112,.T.);
#91=EDGE_CURVE('',#123,#119,#103,.T.);
#92=EDGE_CURVE('',#117,#124,#113,.T.);
#93=EDGE_CURVE('',#124,#122,#104,.T.);
#94=EDGE_CURVE('',#124,#125,#114,.T.);
#95=EDGE_CURVE('',#125,#121,#105,.T.);
#96=EDGE_CURVE('',#125,#126,#115,.T.);
#97=EDGE_CURVE('',#126,#120,#106,.T.);
#98=EDGE_CURVE('',#126,#123,#116,.T.);
#99=(
BOUNDED_CURVE()
B_SPLINE_CURVE(2,(#283,#284,#285,#286,#287),.UNSPECIFIED.,.F.,.F.)
B_SPLINE_CURVE_WITH_KNOTS((3,2,3),(0.,31.4159265358979,62.8318530717959),
 .UNSPECIFIED.)
CURVE()
GEOMETRIC_REPRESENTATION_ITEM()
RATIONAL_B_SPLINE_CURVE((1.,0.707106781186548,1.,0.707106781186548,1.))
REPRESENTATION_ITEM('')
);
#100=(
BOUNDED_CURVE()
B_SPLINE_CURVE(2,(#288,#289,#290,#291,#292),.UNSPECIFIED.,.F.,.F.)
B_SPLINE_CURVE_WITH_KNOTS((3,2,3),(0.,31.4159265358979,62.8318530717959),
 .UNSPECIFIED.)
CURVE()
GEOMETRIC_REPRESENTATION_ITEM()
RATIONAL_B_SPLINE_CURVE((1.,0.707106781186548,1.,0.707106781186548,1.))
REPRESENTATION_ITEM('')
);
#101=(
BOUNDED_CURVE()
B_SPLINE_CURVE(2,(#293,#294,#295,#296,#297),.UNSPECIFIED.,.F.,.F.)
B_SPLINE_CURVE_WITH_KNOTS((3,2,3),(0.,31.4159265358979,62.8318530717959),
 .UNSPECIFIED.)
CURVE()
GEOMETRIC_REPRESENTATION_ITEM()
RATIONAL_B_SPLINE_CURVE((1.,0.707106781186548,1.,0.707106781186548,1.))
REPRESENTATION_ITEM('')
);
#102=(
BOUNDED_CURVE()
B_SPLINE_CURVE(2,(#298,#299,#300,#301,#302),.UNSPECIFIED.,.F.,.F.)
B_SPLINE_CURVE_WITH_KNOTS((3,2,3),(0.,31.4159265358979,62.8318530717959),
 .UNSPECIFIED.)
CURVE()
GEOMETRIC_REPRESENTATION_ITEM()
RATIONAL_B_SPLINE_CURVE((1.,0.707106781186548,1.,0.707106781186548,1.))
REPRESENTATION_ITEM('')
);
#103=(
BOUNDED_CURVE()
B_SPLINE_CURVE(2,(#305,#306,#307,#308,#309),.UNSPECIFIED.,.F.,.F.)
B_SPLINE_CURVE_WITH_KNOTS((3,2,3),(62.8318530717959,94.2477796076938,125.663706143592),
 .UNSPECIFIED.)
CURVE()
GEOMETRIC_REPRESENTATION_ITEM()
RATIONAL_B_SPLINE_CURVE((1.,0.707106781186548,1.,0.707106781186548,1.))
REPRESENTATION_ITEM('')
);
#104=(
BOUNDED_CURVE()
B_SPLINE_CURVE(2,(#312,#313,#314,#315,#316),.UNSPECIFIED.,.F.,.F.)
B_SPLINE_CURVE_WITH_KNOTS((3,2,3),(62.8318530717959,94.2477796076938,125.663706143592),
 .UNSPECIFIED.)
CURVE()
GEOMETRIC_REPRESENTATION_ITEM()
RATIONAL_B_SPLINE_CURVE((1.,0.707106781186548,1.,0.707106781186548,1.))
REPRESENTATION_ITEM('')
);
#105=(
BOUNDED_CURVE()
B_SPLINE_CURVE(2,(#319,#320,#321,#322,#323),.UNSPECIFIED.,.F.,.F.)
B_SPLINE_CURVE_WITH_KNOTS((3,2,3),(62.8318530717959,94.2477796076938,125.663706143592),
 .UNSPECIFIED.)
CURVE()
GEOMETRIC_REPRESENTATION_ITEM()
RATIONAL_B_SPLINE_CURVE((1.,0.707106781186548,1.,0.707106781186548,1.))
REPRESENTATION_ITEM('')
);
#106=(
BOUNDED_CURVE()
B_SPLINE_CURVE(2,(#326,#327,#328,#329,#330),.UNSPECIFIED.,.F.,.F.)
B_SPLINE_CURVE_WITH_KNOTS((3,2,3),(62.8318530717959,94.2477796076938,125.663706143592),
 .UNSPECIFIED.)
CURVE()
GEOMETRIC_REPRESENTATION_ITEM()
RATIONAL_B_SPLINE_CURVE((1.,0.707106781186548,1.,0.707106781186548,1.))
REPRESENTATION_ITEM('')
);
#107=B_SPLINE_CURVE_WITH_KNOTS('',1,(#273,#274),.UNSPECIFIED.,.F.,.F.,(2,
2),(0.,10.),.UNSPECIFIED.);
#108=B_SPLINE_CURVE_WITH_KNOTS('',1,(#275,#276),.UNSPECIFIED.,.F.,.F.,(2,
2),(62.,82.),.UNSPECIFIED.);
#109=B_SPLINE_CURVE_WITH_KNOTS('',1,(#277,#278),.UNSPECIFIED.,.F.,.F.,(2,
2),(60.,62.),.UNSPECIFIED.);
#110=B_SPLINE_CURVE_WITH_KNOTS('',1,(#279,#280),.UNSPECIFIED.,.F.,.F.,(2,
2),(50.,60.),.UNSPECIFIED.);
#111=B_SPLINE_CURVE_WITH_KNOTS('',1,(#281,#282),.UNSPECIFIED.,.F.,.F.,(2,
2),(10.,50.),.UNSPECIFIED.);
#112=B_SPLINE_CURVE_WITH_KNOTS('',1,(#303,#304),.UNSPECIFIED.,.F.,.F.,(2,
2),(62.,82.),.UNSPECIFIED.);
#113=B_SPLINE_CURVE_WITH_KNOTS('',1,(#310,#311),.UNSPECIFIED.,.F.,.F.,(2,
2),(0.,10.),.UNSPECIFIED.);
#114=B_SPLINE_CURVE_WITH_KNOTS('',1,(#317,#318),.UNSPECIFIED.,.F.,.F.,(2,
2),(10.,50.),.UNSPECIFIED.);
#115=B_SPLINE_CURVE_WITH_KNOTS('',1,(#324,#325),.UNSPECIFIED.,.F.,.F.,(2,
2),(50.,60.),.UNSPECIFIED.);
#116=B_SPLINE_CURVE_WITH_KNOTS('',1,(#331,#332),.UNSPECIFIED.,.F.,.F.,(2,
2),(60.,62.),.UNSPECIFIED.);
#117=VERTEX_POINT('',#263);
#118=VERTEX_POINT('',#264);
#119=VERTEX_POINT('',#265);
#120=VERTEX_POINT('',#266);
#121=VERTEX_POINT('',#267);
#122=VERTEX_POINT('',#268);
#123=VERTEX_POINT('',#269);
#124=VERTEX_POINT('',#270);
#125=VERTEX_POINT('',#271);
#126=VERTEX_POINT('',#272);
#127=(
BOUNDED_SURFACE()
B_SPLINE_SURFACE(2,1,((#163,#164),(#165,#166),(#167,#168),(#169,#170),(#171,
#172)),.UNSPECIFIED.,.F.,.F.,.F.)
B_SPLINE_SURFACE_WITH_KNOTS((3,2,3),(2,2),(0.,31.4159265358979,62.8318530717959),
(62.,82.),.UNSPECIFIED.)
GEOMETRIC_REPRESENTATION_ITEM()
RATIONAL_B_SPLINE_SURFACE(((1.,1.),(0.707106781186548,0.707106781186548),
(1.,1.),(0.707106781186548,0.707106781186548),(1.,1.)))
REPRESENTATION_ITEM('')
SURFACE()
);
#128=(
BOUNDED_SURFACE()
B_SPLINE_SURFACE(2,1,((#173,#174),(#175,#176),(#177,#178),(#179,#180),(#181,
#182)),.UNSPECIFIED.,.F.,.F.,.F.)
B_SPLINE_SURFACE_WITH_KNOTS((3,2,3),(2,2),(0.,31.4159265358979,62.8318530717959),
(0.,10.),.UNSPECIFIED.)
GEOMETRIC_REPRESENTATION_ITEM()
RATIONAL_B_SPLINE_SURFACE(((1.,1.),(0.707106781186548,0.707106781186548),
(1.,1.),(0.707106781186548,0.707106781186548),(1.,1.)))
REPRESENTATION_ITEM('')
SURFACE()
);
#129=(
BOUNDED_SURFACE()
B_SPLINE_SURFACE(2,1,((#183,#184),(#185,#186),(#187,#188),(#189,#190),(#191,
#192)),.UNSPECIFIED.,.F.,.F.,.F.)
B_SPLINE_SURFACE_WITH_KNOTS((3,2,3),(2,2),(0.,31.4159265358979,62.8318530717959),
(10.,50.),.UNSPECIFIED.)
GEOMETRIC_REPRESENTATION_ITEM()
RATIONAL_B_SPLINE_SURFACE(((1.,1.),(0.707106781186548,0.707106781186548),
(1.,1.),(0.707106781186548,0.707106781186548),(1.,1.)))
REPRESENTATION_ITEM('')
SURFACE()
);
#130=(
BOUNDED_SURFACE()
B_SPLINE_SURFACE(2,1,((#193,#194),(#195,#196),(#197,#198),(#199,#200),(#201,
#202)),.UNSPECIFIED.,.F.,.F.,.F.)
B_SPLINE_SURFACE_WITH_KNOTS((3,2,3),(2,2),(0.,31.4159265358979,62.8318530717959),
(50.,60.),.UNSPECIFIED.)
GEOMETRIC_REPRESENTATION_ITEM()
RATIONAL_B_SPLINE_SURFACE(((1.,1.),(0.707106781186548,0.707106781186548),
(1.,1.),(0.707106781186548,0.707106781186548),(1.,1.)))
REPRESENTATION_ITEM('')
SURFACE()
);
#131=(
BOUNDED_SURFACE()
B_SPLINE_SURFACE(2,1,((#203,#204),(#205,#206),(#207,#208),(#209,#210),(#211,
#212)),.UNSPECIFIED.,.F.,.F.,.F.)
B_SPLINE_SURFACE_WITH_KNOTS((3,2,3),(2,2),(0.,31.4159265358979,62.8318530717959),
(60.,62.),.UNSPECIFIED.)
GEOMETRIC_REPRESENTATION_ITEM()
RATIONAL_B_SPLINE_SURFACE(((1.,1.),(0.707106781186548,0.707106781186548),
(1.,1.),(0.707106781186548,0.707106781186548),(1.,1.)))
REPRESENTATION_ITEM('')
SURFACE()
);
#132=(
BOUNDED_SURFACE()
B_SPLINE_SURFACE(2,1,((#213,#214),(#215,#216),(#217,#218),(#219,#220),(#221,
#222)),.UNSPECIFIED.,.F.,.F.,.F.)
B_SPLINE_SURFACE_WITH_KNOTS((3,2,3),(2,2),(62.8318530717959,94.2477796076938,
125.663706143592),(62.,82.),.UNSPECIFIED.)
GEOMETRIC_REPRESENTATION_ITEM()
RATIONAL_B_SPLINE_SURFACE(((1.,1.),(0.707106781186548,0.707106781186548),
(1.,1.),(0.707106781186548,0.707106781186548),(1.,1.)))
REPRESENTATION_ITEM('')
SURFACE()
);
#133=(
BOUNDED_SURFACE()
B_SPLINE_SURFACE(2,1,((#223,#224),(#225,#226),(#227,#228),(#229,#230),(#231,
#232)),.UNSPECIFIED.,.F.,.F.,.F.)
B_SPLINE_SURFACE_WITH_KNOTS((3,2,3),(2,2),(62.8318530717959,94.2477796076938,
125.663706143592),(0.,10.),.UNSPECIFIED.)
GEOMETRIC_REPRESENTATION_ITEM()
RATIONAL_B_SPLINE_SURFACE(((1.,1.),(0.707106781186548,0.707106781186548),
(1.,1.),(0.707106781186548,0.707106781186548),(1.,1.)))
REPRESENTATION_ITEM('')
SURFACE()
);
#134=(
BOUNDED_SURFACE()
B_SPLINE_SURFACE(2,1,((#233,#234),(#235,#236),(#237,#238),(#239,#240),(#241,
#242)),.UNSPECIFIED.,.F.,.F.,.F.)
B_SPLINE_SURFACE_WITH_KNOTS((3,2,3),(2,2),(62.8318530717959,94.2477796076938,
125.663706143592),(10.,50.),.UNSPECIFIED.)
GEOMETRIC_REPRESENTATION_ITEM()
RATIONAL_B_SPLINE_SURFACE(((1.,1.),(0.707106781186548,0.707106781186548),
(1.,1.),(0.707106781186548,0.707106781186548),(1.,1.)))
REPRESENTATION_ITEM('')
SURFACE()
);
#135=(
BOUNDED_SURFACE()
B_SPLINE_SURFACE(2,1,((#243,#244),(#245,#246),(#247,#248),(#249,#250),(#251,
#252)),.UNSPECIFIED.,.F.,.F.,.F.)
B_SPLINE_SURFACE_WITH_KNOTS((3,2,3),(2,2),(62.8318530717959,94.2477796076938,
125.663706143592),(50.,60.),.UNSPECIFIED.)
GEOMETRIC_REPRESENTATION_ITEM()
RATIONAL_B_SPLINE_SURFACE(((1.,1.),(0.707106781186548,0.707106781186548),
(1.,1.),(0.707106781186548,0.707106781186548),(1.,1.)))
REPRESENTATION_ITEM('')
SURFACE()
);
#136=(
BOUNDED_SURFACE()
B_SPLINE_SURFACE(2,1,((#253,#254),(#255,#256),(#257,#258),(#259,#260),(#261,
#262)),.UNSPECIFIED.,.F.,.F.,.F.)
B_SPLINE_SURFACE_WITH_KNOTS((3,2,3),(2,2),(62.8318530717959,94.2477796076938,
125.663706143592),(60.,62.),.UNSPECIFIED.)
GEOMETRIC_REPRESENTATION_ITEM()
RATIONAL_B_SPLINE_SURFACE(((1.,1.),(0.707106781186548,0.707106781186548),
(1.,1.),(0.707106781186548,0.707106781186548),(1.,1.)))
REPRESENTATION_ITEM('')
SURFACE()
);
#137=SHAPE_DEFINITION_REPRESENTATION(#138,#155);
#138=PRODUCT_DEFINITION_SHAPE('Document','',#140);
#139=PRODUCT_DEFINITION_CONTEXT('3D Mechanical Parts',#144,'design');
#140=PRODUCT_DEFINITION('A','First version',#141,#139);
#141=PRODUCT_DEFINITION_FORMATION_WITH_SPECIFIED_SOURCE('A',
'First version',#146,.MADE.);
#142=PRODUCT_RELATED_PRODUCT_CATEGORY('tool','tool',(#146));
#143=APPLICATION_PROTOCOL_DEFINITION('Draft International Standard',
'automotive_design',1999,#144);
#144=APPLICATION_CONTEXT(
'data for automotive mechanical design processes');
#145=PRODUCT_CONTEXT('3D Mechanical Parts',#144,'mechanical');
#146=PRODUCT('Document','Document','Rhino converted to STEP',(#145));
#147=(
LENGTH_UNIT()
NAMED_UNIT(*)
SI_UNIT(.MILLI.,.METRE.)
);
#148=(
NAMED_UNIT(*)
PLANE_ANGLE_UNIT()
SI_UNIT($,.RADIAN.)
);
#149=DIMENSIONAL_EXPONENTS(0.,0.,0.,0.,0.,0.,0.);
#150=PLANE_ANGLE_MEASURE_WITH_UNIT(PLANE_ANGLE_MEASURE(0.01745329252),#148);
#151=(
CONVERSION_BASED_UNIT('DEGREES',#150)
NAMED_UNIT(#149)
PLANE_ANGLE_UNIT()
);
#152=(
NAMED_UNIT(*)
SI_UNIT($,.STERADIAN.)
SOLID_ANGLE_UNIT()
);
#153=UNCERTAINTY_MEASURE_WITH_UNIT(LENGTH_MEASURE(0.01),#147,
'DISTANCE_ACCURACY_VALUE',
'Maximum model space distance between geometric entities at asserted c
onnectivities');
#154=(
GEOMETRIC_REPRESENTATION_CONTEXT(3)
GLOBAL_UNCERTAINTY_ASSIGNED_CONTEXT((#153))
GLOBAL_UNIT_ASSIGNED_CONTEXT((#152,#151,#147))
REPRESENTATION_CONTEXT('ID1','3D')
);
#155=SHAPE_REPRESENTATION('Document',(#156,#157),#154);
#156=AXIS2_PLACEMENT_3D('',#162,#158,#159);
#157=AXIS2_PLACEMENT_3D('',#333,#160,#161);
#158=DIRECTION('',(0.,0.,1.));
#159=DIRECTION('',(1.,0.,0.));
#160=DIRECTION('',(0.,0.,1.));
#161=DIRECTION('',(1.,0.,0.));
#162=CARTESIAN_POINT('',(0.,0.,0.));
#163=CARTESIAN_POINT('',(6718.17748116219,-6084.32062927545,0.));
#164=CARTESIAN_POINT('',(6718.17748116219,-6064.32062927545,0.));
#165=CARTESIAN_POINT('',(6718.17748116219,-6084.32062927545,-20.));
#166=CARTESIAN_POINT('',(6718.17748116219,-6064.32062927545,0.));
#167=CARTESIAN_POINT('',(6718.17748116219,-6064.32062927545,-20.));
#168=CARTESIAN_POINT('',(6718.17748116219,-6064.32062927545,0.));
#169=CARTESIAN_POINT('',(6718.17748116219,-6044.32062927545,-20.));
#170=CARTESIAN_POINT('',(6718.17748116219,-6064.32062927545,0.));
#171=CARTESIAN_POINT('',(6718.17748116219,-6044.32062927545,-2.44929359829471E-15));
#172=CARTESIAN_POINT('',(6718.17748116219,-6064.32062927545,0.));
#173=CARTESIAN_POINT('',(6676.17748116218,-6064.32062927545,0.));
#174=CARTESIAN_POINT('',(6676.17748116219,-6074.32062927545,0.));
#175=CARTESIAN_POINT('',(6676.17748116218,-6064.32062927545,0.));
#176=CARTESIAN_POINT('',(6676.17748116219,-6074.32062927545,-10.));
#177=CARTESIAN_POINT('',(6676.17748116218,-6064.32062927545,0.));
#178=CARTESIAN_POINT('',(6676.17748116219,-6064.32062927545,-10.));
#179=CARTESIAN_POINT('',(6676.17748116218,-6064.32062927545,0.));
#180=CARTESIAN_POINT('',(6676.17748116219,-6054.32062927545,-10.));
#181=CARTESIAN_POINT('',(6676.17748116218,-6064.32062927545,0.));
#182=CARTESIAN_POINT('',(6676.17748116219,-6054.32062927545,-1.22464679914735E-15));
#183=CARTESIAN_POINT('',(6676.17748116219,-6074.32062927545,0.));
#184=CARTESIAN_POINT('',(6716.17748116219,-6074.32062927545,0.));
#185=CARTESIAN_POINT('',(6676.17748116219,-6074.32062927545,-10.));
#186=CARTESIAN_POINT('',(6716.17748116219,-6074.32062927545,-10.));
#187=CARTESIAN_POINT('',(6676.17748116219,-6064.32062927545,-10.));
#188=CARTESIAN_POINT('',(6716.17748116219,-6064.32062927545,-10.));
#189=CARTESIAN_POINT('',(6676.17748116219,-6054.32062927545,-10.));
#190=CARTESIAN_POINT('',(6716.17748116219,-6054.32062927545,-10.));
#191=CARTESIAN_POINT('',(6676.17748116219,-6054.32062927545,-1.22464679914735E-15));
#192=CARTESIAN_POINT('',(6716.17748116219,-6054.32062927545,-1.22464679914735E-15));
#193=CARTESIAN_POINT('',(6716.17748116219,-6074.32062927545,0.));
#194=CARTESIAN_POINT('',(6716.17748116219,-6084.32062927545,0.));
#195=CARTESIAN_POINT('',(6716.17748116219,-6074.32062927545,-10.));
#196=CARTESIAN_POINT('',(6716.17748116219,-6084.32062927545,-20.));
#197=CARTESIAN_POINT('',(6716.17748116219,-6064.32062927545,-10.));
#198=CARTESIAN_POINT('',(6716.17748116219,-6064.32062927545,-20.));
#199=CARTESIAN_POINT('',(6716.17748116219,-6054.32062927545,-10.));
#200=CARTESIAN_POINT('',(6716.17748116219,-6044.32062927545,-20.));
#201=CARTESIAN_POINT('',(6716.17748116219,-6054.32062927545,-1.22464679914735E-15));
#202=CARTESIAN_POINT('',(6716.17748116219,-6044.32062927545,-2.44929359829471E-15));
#203=CARTESIAN_POINT('',(6716.17748116219,-6084.32062927545,0.));
#204=CARTESIAN_POINT('',(6718.17748116219,-6084.32062927545,0.));
#205=CARTESIAN_POINT('',(6716.17748116219,-6084.32062927545,-20.));
#206=CARTESIAN_POINT('',(6718.17748116219,-6084.32062927545,-20.));
#207=CARTESIAN_POINT('',(6716.17748116219,-6064.32062927545,-20.));
#208=CARTESIAN_POINT('',(6718.17748116219,-6064.32062927545,-20.));
#209=CARTESIAN_POINT('',(6716.17748116219,-6044.32062927545,-20.));
#210=CARTESIAN_POINT('',(6718.17748116219,-6044.32062927545,-20.));
#211=CARTESIAN_POINT('',(6716.17748116219,-6044.32062927545,-2.44929359829471E-15));
#212=CARTESIAN_POINT('',(6718.17748116219,-6044.32062927545,-2.44929359829471E-15));
#213=CARTESIAN_POINT('',(6718.17748116219,-6044.32062927545,0.));
#214=CARTESIAN_POINT('',(6718.17748116219,-6064.32062927545,0.));
#215=CARTESIAN_POINT('',(6718.17748116219,-6044.32062927545,20.));
#216=CARTESIAN_POINT('',(6718.17748116219,-6064.32062927545,0.));
#217=CARTESIAN_POINT('',(6718.17748116219,-6064.32062927545,20.));
#218=CARTESIAN_POINT('',(6718.17748116219,-6064.32062927545,0.));
#219=CARTESIAN_POINT('',(6718.17748116219,-6084.32062927545,20.));
#220=CARTESIAN_POINT('',(6718.17748116219,-6064.32062927545,0.));
#221=CARTESIAN_POINT('',(6718.17748116219,-6084.32062927545,2.44929359829471E-15));
#222=CARTESIAN_POINT('',(6718.17748116219,-6064.32062927545,0.));
#223=CARTESIAN_POINT('',(6676.17748116218,-6064.32062927545,0.));
#224=CARTESIAN_POINT('',(6676.17748116219,-6054.32062927545,0.));
#225=CARTESIAN_POINT('',(6676.17748116218,-6064.32062927545,0.));
#226=CARTESIAN_POINT('',(6676.17748116219,-6054.32062927545,10.));
#227=CARTESIAN_POINT('',(6676.17748116218,-6064.32062927545,0.));
#228=CARTESIAN_POINT('',(6676.17748116219,-6064.32062927545,10.));
#229=CARTESIAN_POINT('',(6676.17748116218,-6064.32062927545,0.));
#230=CARTESIAN_POINT('',(6676.17748116219,-6074.32062927545,10.));
#231=CARTESIAN_POINT('',(6676.17748116218,-6064.32062927545,0.));
#232=CARTESIAN_POINT('',(6676.17748116219,-6074.32062927545,1.22464679914735E-15));
#233=CARTESIAN_POINT('',(6676.17748116219,-6054.32062927545,0.));
#234=CARTESIAN_POINT('',(6716.17748116219,-6054.32062927545,0.));
#235=CARTESIAN_POINT('',(6676.17748116219,-6054.32062927545,10.));
#236=CARTESIAN_POINT('',(6716.17748116219,-6054.32062927545,10.));
#237=CARTESIAN_POINT('',(6676.17748116219,-6064.32062927545,10.));
#238=CARTESIAN_POINT('',(6716.17748116219,-6064.32062927545,10.));
#239=CARTESIAN_POINT('',(6676.17748116219,-6074.32062927545,10.));
#240=CARTESIAN_POINT('',(6716.17748116219,-6074.32062927545,10.));
#241=CARTESIAN_POINT('',(6676.17748116219,-6074.32062927545,1.22464679914735E-15));
#242=CARTESIAN_POINT('',(6716.17748116219,-6074.32062927545,1.22464679914735E-15));
#243=CARTESIAN_POINT('',(6716.17748116219,-6054.32062927545,0.));
#244=CARTESIAN_POINT('',(6716.17748116219,-6044.32062927545,0.));
#245=CARTESIAN_POINT('',(6716.17748116219,-6054.32062927545,10.));
#246=CARTESIAN_POINT('',(6716.17748116219,-6044.32062927545,20.));
#247=CARTESIAN_POINT('',(6716.17748116219,-6064.32062927545,10.));
#248=CARTESIAN_POINT('',(6716.17748116219,-6064.32062927545,20.));
#249=CARTESIAN_POINT('',(6716.17748116219,-6074.32062927545,10.));
#250=CARTESIAN_POINT('',(6716.17748116219,-6084.32062927545,20.));
#251=CARTESIAN_POINT('',(6716.17748116219,-6074.32062927545,1.22464679914735E-15));
#252=CARTESIAN_POINT('',(6716.17748116219,-6084.32062927545,2.44929359829471E-15));
#253=CARTESIAN_POINT('',(6716.17748116219,-6044.32062927545,0.));
#254=CARTESIAN_POINT('',(6718.17748116219,-6044.32062927545,0.));
#255=CARTESIAN_POINT('',(6716.17748116219,-6044.32062927545,20.));
#256=CARTESIAN_POINT('',(6718.17748116219,-6044.32062927545,20.));
#257=CARTESIAN_POINT('',(6716.17748116219,-6064.32062927545,20.));
#258=CARTESIAN_POINT('',(6718.17748116219,-6064.32062927545,20.));
#259=CARTESIAN_POINT('',(6716.17748116219,-6084.32062927545,20.));
#260=CARTESIAN_POINT('',(6718.17748116219,-6084.32062927545,20.));
#261=CARTESIAN_POINT('',(6716.17748116219,-6084.32062927545,2.44929359829471E-15));
#262=CARTESIAN_POINT('',(6718.17748116219,-6084.32062927545,2.44929359829471E-15));
#263=CARTESIAN_POINT('',(6676.17748116218,-6064.32062927545,0.));
#264=CARTESIAN_POINT('',(6718.17748116219,-6064.32062927545,0.));
#265=CARTESIAN_POINT('',(6718.17748116219,-6084.32062927545,0.));
#266=CARTESIAN_POINT('',(6716.17748116219,-6084.32062927545,0.));
#267=CARTESIAN_POINT('',(6716.17748116219,-6074.32062927545,0.));
#268=CARTESIAN_POINT('',(6676.17748116219,-6074.32062927545,0.));
#269=CARTESIAN_POINT('',(6718.17748116219,-6044.32062927545,0.));
#270=CARTESIAN_POINT('',(6676.17748116218,-6054.32062927545,0.));
#271=CARTESIAN_POINT('',(6716.17748116218,-6054.32062927545,0.));
#272=CARTESIAN_POINT('',(6716.17748116218,-6044.32062927545,0.));
#273=CARTESIAN_POINT('',(6676.17748116218,-6064.32062927545,0.));
#274=CARTESIAN_POINT('',(6676.17748116219,-6074.32062927545,0.));
#275=CARTESIAN_POINT('',(6718.17748116219,-6084.32062927545,0.));
#276=CARTESIAN_POINT('',(6718.17748116219,-6064.32062927545,0.));
#277=CARTESIAN_POINT('',(6716.17748116219,-6084.32062927545,0.));
#278=CARTESIAN_POINT('',(6718.17748116219,-6084.32062927545,0.));
#279=CARTESIAN_POINT('',(6716.17748116219,-6074.32062927545,0.));
#280=CARTESIAN_POINT('',(6716.17748116219,-6084.32062927545,0.));
#281=CARTESIAN_POINT('',(6676.17748116219,-6074.32062927545,0.));
#282=CARTESIAN_POINT('',(6716.17748116219,-6074.32062927545,0.));
#283=CARTESIAN_POINT('',(6676.17748116219,-6074.32062927545,0.));
#284=CARTESIAN_POINT('',(6676.17748116218,-6074.32062927545,-10.));
#285=CARTESIAN_POINT('',(6676.17748116218,-6064.32062927545,-10.));
#286=CARTESIAN_POINT('',(6676.17748116218,-6054.32062927545,-10.));
#287=CARTESIAN_POINT('',(6676.17748116218,-6054.32062927545,0.));
#288=CARTESIAN_POINT('',(6716.17748116219,-6074.32062927545,0.));
#289=CARTESIAN_POINT('',(6716.17748116219,-6074.32062927545,-10.));
#290=CARTESIAN_POINT('',(6716.17748116218,-6064.32062927545,-10.));
#291=CARTESIAN_POINT('',(6716.17748116218,-6054.32062927545,-10.));
#292=CARTESIAN_POINT('',(6716.17748116218,-6054.32062927545,0.));
#293=CARTESIAN_POINT('',(6716.17748116219,-6084.32062927545,0.));
#294=CARTESIAN_POINT('',(6716.17748116219,-6084.32062927545,-20.));
#295=CARTESIAN_POINT('',(6716.17748116218,-6064.32062927545,-20.));
#296=CARTESIAN_POINT('',(6716.17748116218,-6044.32062927545,-20.));
#297=CARTESIAN_POINT('',(6716.17748116218,-6044.32062927545,0.));
#298=CARTESIAN_POINT('',(6718.17748116219,-6084.32062927545,0.));
#299=CARTESIAN_POINT('',(6718.17748116219,-6084.32062927545,-20.));
#300=CARTESIAN_POINT('',(6718.17748116219,-6064.32062927545,-20.));
#301=CARTESIAN_POINT('',(6718.17748116219,-6044.32062927545,-20.));
#302=CARTESIAN_POINT('',(6718.17748116219,-6044.32062927545,0.));
#303=CARTESIAN_POINT('',(6718.17748116219,-6044.32062927545,0.));
#304=CARTESIAN_POINT('',(6718.17748116219,-6064.32062927545,0.));
#305=CARTESIAN_POINT('',(6718.17748116219,-6044.32062927545,0.));
#306=CARTESIAN_POINT('',(6718.17748116219,-6044.32062927545,20.));
#307=CARTESIAN_POINT('',(6718.17748116219,-6064.32062927545,20.));
#308=CARTESIAN_POINT('',(6718.17748116219,-6084.32062927545,20.));
#309=CARTESIAN_POINT('',(6718.17748116219,-6084.32062927545,0.));
#310=CARTESIAN_POINT('',(6676.17748116218,-6064.32062927545,0.));
#311=CARTESIAN_POINT('',(6676.17748116219,-6054.32062927545,0.));
#312=CARTESIAN_POINT('',(6676.17748116218,-6054.32062927545,0.));
#313=CARTESIAN_POINT('',(6676.17748116218,-6054.32062927545,10.));
#314=CARTESIAN_POINT('',(6676.17748116218,-6064.32062927545,10.));
#315=CARTESIAN_POINT('',(6676.17748116218,-6074.32062927545,10.));
#316=CARTESIAN_POINT('',(6676.17748116219,-6074.32062927545,0.));
#317=CARTESIAN_POINT('',(6676.17748116219,-6054.32062927545,0.));
#318=CARTESIAN_POINT('',(6716.17748116219,-6054.32062927545,0.));
#319=CARTESIAN_POINT('',(6716.17748116218,-6054.32062927545,0.));
#320=CARTESIAN_POINT('',(6716.17748116218,-6054.32062927545,10.));
#321=CARTESIAN_POINT('',(6716.17748116218,-6064.32062927545,10.));
#322=CARTESIAN_POINT('',(6716.17748116219,-6074.32062927545,10.));
#323=CARTESIAN_POINT('',(6716.17748116219,-6074.32062927545,0.));
#324=CARTESIAN_POINT('',(6716.17748116219,-6054.32062927545,0.));
#325=CARTESIAN_POINT('',(6716.17748116219,-6044.32062927545,0.));
#326=CARTESIAN_POINT('',(6716.17748116218,-6044.32062927545,0.));
#327=CARTESIAN_POINT('',(6716.17748116218,-6044.32062927545,20.));
#328=CARTESIAN_POINT('',(6716.17748116218,-6064.32062927545,20.));
#329=CARTESIAN_POINT('',(6716.17748116219,-6084.32062927545,20.));
#330=CARTESIAN_POINT('',(6716.17748116219,-6084.32062927545,0.));
#331=CARTESIAN_POINT('',(6716.17748116219,-6044.32062927545,0.));
#332=CARTESIAN_POINT('',(6718.17748116219,-6044.32062927545,0.));
#333=CARTESIAN_POINT('',(0.,0.,0.));
ENDSEC;
END-ISO-10303-21;
